A Kind of Magic

Queen

 Queen
Tono: D
		
(Intro Riff 2x)
(A)
It´s a kind of magic
It´s a kind of magic
A kind of magic
     A 
One deam 
One soul
     B
One prize
One Goal
     D
One golden glance
   A ( Lick A)
Of what should be 
(It´s a kind of magic)
One shaft
Of light
      B  ( Lick B)
That shows the way
   D7+  ( Lick D)
No mortal man
    A ( Lick A)
Can win this day 
(It´s a kind of magic)
The bell 
That rings
   B ( Lick B)
Inside your mind 
    D7+ ( Lick D)
Is challenging
    A
The doors of time 
(It´s a kind of magic)
    F#m
The waiting seems
 D  ( Lick D)
Eternity
    F#m
The day   will dawn
   E
Of sanity
   D ( Lick D)      A ( Lick A)
Is this a kind of magic
(It´s a kind of magic)
      D ( Lick D)   A ( Lick A)
There can be only one
      E 
This rage
      G        D ( Lick D)   
That lasts a thousand years
             E
Will soon be done 
      A ( Lick A)
This flame
That burns
  B ( Lick B)
Inside of me 
    D7+ ( Lick D)     A ( Lick A)
I´m here in secrets harmonies
(It´s a kind of magic)
The bell that rings 
   B ( Lick B)
Inside your mind
    D7+ ( Lick D)
Is challenging
     A             
The doors of time

(Solo Fill) or (D A D A)
   
(It´s a kind of magic) ...
      E
This rage 
      G        D ( Lick D)
That lasts a thousand years
             E
Will soon be,will soon be, 
will soon be done
     D ( Lick D)
This is
          A ( Lick A)
A kind of magic
      D ( Lick D)   A ( Lick A)
There can be only one 
      E
This rage 
      G        D (Fill 1)
That lasts a thousand years
              E
Will soon be done (done) ...
  A ( Lick A) D ( Lick D)
Magic ...
(It´s a kind of magic)
(It´s a kind of magic)
Magic, magic, magic, magic
(Solo Fill) or(D A D A)
  It´s magic
It´s a kind of magic...




(Intro Riff)


  A                                   A        B                    A
E|----------------------------------|----------------------------------|
B|----------------------------------|----------------------------------|
G|-2-2-----2------------------------|-2-----2--4--------------------2--|
D|-2-2-----2---------x-x--x--x-x--x-|-2-----2--4----x-x--x--x-x--x--2--|
A|-0-0-----0---------x-x--x--x-x--x-|-0-----0--2s4--x-x--x--x-x--x--0--|
E|-----2-0------2-0--x-x--x--x-x--x-|---2-0---------x-x--x--x-x--x-----|



 ( Lick A)

E|---------------------------------|
B|---------------------------------|
G|-2-2-----2-2-----2-2-----2-2-----|
D|-2-2-----2-2-----2-2-----2-2-----|
A|-0-0-----0-0-----0-0-----0-0-----|
E|-----2-0-----2-0-----2-0-----2-0-|



 ( Lick B)
E|---------------------------------|
B|---------------------------------|
G|-4-4-----4-4-----4-4-----4-4-----|
D|-4-4-----4-4-----4-4-----4-4-----|
A|-2-2-----2-2-----2-2-----2-2-----|
E|-----4-2-----4-2-----4-2-----4-2-|



 ( Lick D)
E|-2-2-----2-2-----2-2-----2-2-----|
B|-3-3-----3-3-----3-3-----3-3-----|
G|-2-2-----2-2-----2-2-----2-2-----|
D|-0-0-----0-0-----0-0-----0-0-----|
A|-----2-0-----2-0-----2-0-----2-0-|
E|---------------------------------|


(Fill 1)

E|-5-3p2---------------------------|
B|-3-3~~-2~~-----------------------|
G|-2-2~~-2~~-----------------------|
D|---------------------------------|
A|---------------------------------|
E|---------------------------------|




(Solo Fll)

   A D   A D A D  D A D A 
E|-----------------------------------------------------------------|
B|-2h3~~-2h3p2h3--3p2h3h2------------------------------------------|
G|-2-----2~~~~~~--2~~~~~2-2-----2-2-----2-2-----2-2----------------|
D|-2h4~~-2h4p2h3--3p2h3h2-2-----2-2-----2-2-----2-2----------------|
A|-0-----0~~~~~~--0~~~~~0-0-----0-0-----0-0-----0-0----------------|
E|--------------------------2-0-----2-0-----2-0-----2-0------------|





-==Tablatura==-


0:43
  *          *          *

|-------5--|-------5--|-------5-|
|----------|-----4----|-----7---|
|-----2----|---4------|-7-------|
|---2------|-4--------|---7-----|
|----------|----------|---------|
|----------|----------|---------|


0:53, 2:04

  *  .    .  .  |  .  .  .  |  .  .  .  |  ...

|------------------------------------------------|
|-17---------------------------------------------|
|----16b18------18r16___p14----------------------|
|---------------------------16p14----------------|
|---------------------------------1614-12-------|
|------------------------------------------14...-|


A, D/A...


1:00
  .  .  *  .  .  .  |  .  .  .  |  .  .  .  |  .  .  .  *  .  .  .

|------------------------------------------------------------------|
|------------------------------b17r16b17r16-14v--------------------|
|-------------------------14-------------------------14-16p14-16v--|
|-------------12----14/16------------------------------------------|
|-12----14---------------------------------------------------------|
|----14------------------------------------------------------------|




2:10
  *  .  .  .  |  .  .  .  |  .  .  .  |  .  .  .  *  .  .

|-17----17p14-------------------------------------------------|
|-------------------17p14-17p14----14-------------------------|
|-------------------------------14----17p16p14-16p14----14v...|
|----------------------------------------------------16-------|
|-------------------------------------------------------------|
|-------------------------------------------------------------|


  *  .  .  .  |  .  .  .  |  .  .  .  |  .  .  .  * 

|-------------21r19-------------------------------------|
|---------------------h19-17-15-14----------------------|
|----------------------------------16-14-13-------------|
|-------------------------------------------16-14-14...-|
|-------------------------------------------------------|
|-------------------------------------------------------|


   |  .  .  .  *

|---------------------|
|---------------------|
|--------14----14v-...|
|-/16-------16--------|
|---------------------|
|---------------------|



2:25
  *...|  .  .  . |...|... *  .  .  .  |  .  .  .  |  .  .  .  |  .  .  .  *

|-------------------------14-17p14----14---------(14)-------------------------|
|--------17b19-----v---------------17----17p14----14--------------------------|
|----------------------------------------------17----17p16p14-16p14----16-14..|
|-------------------------------------------------------------------16--------|
|-----------------------------------------------------------------------------|
|-----------------------------------------------------------------------------|


  *...|...|...|  .  .  .    *  ...|...|  .  .  .  |  .  .  .  * 

|-------------------------------------------------------------16b17v-|
|-------------------------17b19v-----------b19___r17p14-15p14--------|
|-------------------14-----------------------------------------------|
|-------------16-------16--------------------------------------------|
|--------------------------------------------------------------------|
|--------------------------------------------------------------------|


  *     .  .  .  |  .  .  .  |

|-19b21-19-17-14-x-----------------|
|----------------x-----14----------|
|-------------------------16-14v---|
|----------------------------------|
|----------------------------------|
|----------------------------------|



Outro:
  |  .  .  .  *  .  .  .  |   .  .  .     *  .  .  .  |  .  .   . 

|-----------------------------7--9-10--||----------------7--9--10--|
|-------------------7--8--10-----------||-------7--8--10-----------|
|-9b-7--9-----7--9---------------------||-7--9---------------------|
|--------------------------------------||--------------------------|
|--------------------------------------||--------------------------|
|--------------------------------------||--------------------------|



  *  .  .  .  |  .  .  .  |  .  .  .  |  .  .  .  

|-------------------------9-----------------------|
|----------------7--9--10----10-7-----------------|
|-------6--7--9--------------------9--7--6--------|
|-7--9--------------------------------------9--7--|
|-------------------------------------------------|
|-------------------------------------------------|



  *  .  .  .  |  .  .  .  |  .  .  .  |  .  .  .

|-------------------7--9--12-10-9-----------------|
|----------7--9--10----------------12-10v--------|
|-6--7--9-----------------------------------------|
|-------------------------------------------------|
|-------------------------------------------------|
|-------------------------------------------------|



  *  .  .  .  |   .  .  .  |        |     *  .  .  .  |  .  .   .  |

|-----------------7--9-10--12b14v------------------------7--9--10--------|
|-------7--8--10--------------------------------7--8--10-----------9b10v-|
|-7--9------------------------------------7--9---------------------------|
|------------------------------------------------------------------------|
|------------------------------------------------------------------------|
|------------------------------------------------------------------------|



  *  .  .  .  |  .  .  .  |  .  .  .  |  .  .  .  

|----------------------------------------9--10-12-|
|----------------7--9--10-------9--10-12----------|
|-------6--7--9-----------9--11-------------------|
|-7--9--------------------------------------------|
|-------------------------------------------------|
|-------------------------------------------------|


  *  .  .  .  |  .  .  .  | .  .  .  |

|-14-12-10-9--------------------------------|
|-------------12-10-9-----------------------|
|----------------------11-9-----------------|
|---------------------------12-11-9---------|
|------------------------------------12-----|
|-------------------------------------------|



three guitars arranged for one:
  *   .   .   .   *   .   .   .   

|---------------------------------|
|-------2-----3-----7-----7---10--|
|-2-----1-----2-----4-----6---7---|
|-4-----2-----4-----6-----7---9---|
|-5-------------------------------|
|---------------------------------|


  * . . . | . . . |  .  .  .  |  .  .  .  

|-5---7---8-9-----12----14----16-17-------|
|-5---7---9-10----14----15----16-17-------|
|-6---7---8-9-----------16----17-18-------|
|-----------------14----------------------|
|-----------------------------------------|
|-----------------------------------------|



  *  .  .  .  |  .  .  .  |  .  .  .  |  .  .  .  *

|----------------------------------12-14-12-----------|
|-------------------------12-14-15----------15-14-15--|
|----------------11-13-14-----------------------------|
|-------11-12-14--------------------------------------|
|-12-14-----------------------------------------------|
|-----------------------------------------------------|
                          |  .  .  .  |  .  .  .  *   |
                        |-9---------------------------|
                        |----10-7---------------------|
                        |----------9--7--6--6---------|
                        |----------------------9--7---|
                        |-----------------------------|
                        |-----------------------------|
Texto Columnas
Alterar tom ½ tono ½ tono
sintonización acordes esconder tabs más »

Comentarios (1)

  • valber valber: Publicado en 25/12/2013 20:54

    video aulaa

Composición: Célia Lawson / Natiruts / Roger Taylor
Ese no és el compositor? Avisenos.
Contribución: Taino from Hell Correcciónes: Vinícius Cooper Satriani »
  1. Sweet Child O' Mine - Guns N' Roses mantiene 2.925 exhibiciones
  2. Wonderwall - Oasis mantiene 2.186 exhibiciones
  3. Hey Jude - The Beatles mantiene 1.958 exhibiciones
  4. Nothing Else Matters - Metallica mantiene 1.804 exhibiciones
  5. Wake Me Up - Avicii mantiene 1.773 exhibiciones
  6. Stairway To Heaven - Led Zeppelin mantiene 1.661 exhibiciones
  7. When I Was Your Man - Bruno Mars mantiene 1.589 exhibiciones
  8. More Than Words - Extreme mantiene 1.450 exhibiciones
  9. Get Lucky - Daft Punk mantiene 1.367 exhibiciones
  10. Don't Let Me Down - The Beatles mantiene 1.360 exhibiciones
  1. The Beatles- mantiene 25.078 exhibiciones
  2. Metallica- mantiene 8.619 exhibiciones
  3. Guns N' Roses- mantiene 7.929 exhibiciones
  4. Nirvana- mantiene 6.626 exhibiciones
  5. Red Hot Chili Peppers- mantiene 5.725 exhibiciones
  6. One Direction- mantiene 5.420 exhibiciones
  7. Bruno Mars- mantiene 4.865 exhibiciones
  8. Coldplay- mantiene 4.745 exhibiciones
  9. Oasis- mantiene 4.554 exhibiciones
  10. Green Day- mantiene 3.603 exhibiciones
Exhibir acordes »

Acordes y tabs

Aprenda

Studio Sol

©1996 - 2014 Cifra Club · el primero, mayor y más accedido del Brasil · 329 mil músicas · 5.9 millones de personas registradas

publicidad
cerrar