In Spite Of The Danger

Quarrymen

 Quarrymen Compositor: George Harisson / Paul McArtney
Tono: E
		
Intro:

                                                  B7
E|-------------12-12--10----|-12-12-10-----------------------|
B|-------9--12------------12|-----------12--10--7------------|
G|-----9-------------- -----|--------------------------------|
D|--------------------------|--------------------------------|
A|--------------------------|--------------------------------|
E|--------------------------|--------------------------------|


                     E
In spite of all the danger,
                           E7
in spite of all that may be
                      A
I'll do anything for you,
                     B7
anything you want me to
                      E  A  E
if you'll be true to me.
                     E
In spite of all the heartache,
E                     E7
that you may cause me,
                      A
I'll do anything for you,
                     B7
anything you want me to,
                     E  A  E
if you'll be true to me.
      A
I'll look after you
           E              E
like I've never done before.
      A
I'll keep all the others
       B7
from knocking at your door.
                     E
In spite of all the danger,
E                           E7
in spite of all that may be,
                      A
I'll do anything for you,
                     B7
anything you want me to,
                     E  A  E
if you'll be true to me.


 Solo: E E A E B A E B
E|------------12-12-10----12-12--|--------12-12-10----12-12--|
B|------9--12----------12--------|--10-12----------12--------|
G|----9--------------------------|---------------------------|
D|-------------------------------|---------------------------|
A|-------------------------------|---------------------------|
E|-------------------------------|---------------------------|



E|--------12-12-10----12-12------|--------12-10----12-10-----|
B|--10-12----------12------------|--10-12-------12-------12--|
G|-------------------------------|---------------------------|
D|-------------------------------|---------------------------|
A|-------------------------------|---------------------------|
E|-------------------------------|---------------------------|



E|--12-10----12-10---------------|--15-15-14-12--15-15-14-12-|
B|--------12-------12------------|---------------------------|
G|-------------------------------|---------------------------|
D|-------------------------------|---------------------------|
A|-------------------------------|---------------------------|
E|-------------------------------|---------------------------|



E|--15-15-14-12--15-15-14-12-----|--12-12-10-----12-12-10----|
B|-------------------------------|-----------12-----------12-|
G|-------------------------------|---------------------------|
D|-------------------------------|---------------------------|
A|-------------------------------|---------------------------|
E|-------------------------------|---------------------------|



E|--12-10----12-10---------------|--12-10----12-10-----------|
B|--------12-------12------------|--------12-------12--------|
G|-------------------------------|---------------------------|
D|-------------------------------|---------------------------|
A|-------------------------------|---------------------------|
E|-------------------------------|---------------------------|



E|--7-7--7-7--7-7--7-------------|--5-5-5--5-5--5------------|
B|--7-7--7-7--7-7--7-------------|--5-5-5--5-5--5------------|
G|-------------------------------|---------------------------|
D|-------------------------------|---------------------------|
A|-------------------------------|---------------------------|
E|-------------------------------|---------------------------|



E|--12-10----12-10---------------|--12-10----12-10-----------|
B|--------12-------12------------|--------12-------12--------|
G|-------------------------------|---------------------------|
D|-------------------------------|---------------------------|
A|-------------------------------|---------------------------|
E|-------------------------------|---------------------------|



E|------7-7-7--7-7---------------|---------------------------|
B|--10--7-7-7--7-7---------------|---------------------------|
G|-------------------------------|---------------------------|
D|-------------------------------|---------------------------|
A|-------------------------------|---------------------------|
E|-------------------------------|---------------------------|



                     E
In spite of all the heartache
E                     E7
that you may cause me,
                      A
I'll do anything for you,
                     B7
anything you want me to,
                      E  A  E
if you'll be true to me.
                     A
I'll do anything for you,
                     B
anything you want me to,
                      E  A  E  E4 E
if you'll be true to me.
5.520 exhibiciónes

Comentarios 4

  • guilherme guilherme: Publicado en 03/04/2014 20:56

    otima musica!!

  • mergulhao mergulhao: Publicado en 26/07/2011 09:56

    grande musica!!!beatles forever!!!ou quarrymen

    • joleys joleys: Publicado en 22/04/2012 17:14

      .l. gay

    • Mateus Mateus: Publicado en 22/12/2013 10:03

      Comentário removido

Composición: Sabe quien és el compositor? Envíenos. Contribución: 4F Correcciónes: TheLipeSlash , lukecarv e mais 2 »
Exhibir acordes »
publicidad
cerrar