Beautiful

P.O.D

 P.O.D
Tono: 
		
Beautiful
P.O.D.

Riff 1 x2

Riff 1
You stand with a gun in your hand
Staring at the wall with a look so sad

Riff 1
Thinking about who really cares
And will they even notice if I just disappear

Riff 2
In one bang a bust to the head
Shed rather fly through the sky than walk with the dead

Riff 2
She stays high while the world goes by
Just another day here waiting to die

Riff 3
But life is beautiful
Share a little love with the whole wide world

Riff 3
Every boy and girl sing this song
When we sing why-o,
Why-o

Riff 1
And she cries but her man denies
Its funny how love covers so many lies

Riff 1
He said he'd never do it again
So she puts on a smile and starts to pretend

Riff 2
And she hides all the pain inside
While filling up her arms with pretty little lines

Riff 2
She cuts with no intent to kill
This time she didn't do it
But someday she will

Riff 3
But life is beautiful
So share a little love with the whole wide world

Riff 3
Every boy and girl sing this song
When we sing why-o,
Why-o

Riff 4
And hey, you're beautiful
And there's enough love for the whole wide world

Riff 4
Every boy and girl sing along
When we sing why-o,
Why-o

Riff 5 x1.5 Distorção
And hey,
I know that you can find a way
You're beautiful to me
No matter what you think or say
Its all gonna be okay
You're beautiful to me
Riff 1 Limpo

Riff 2
Too weak, too weary to drive
Too angry inside, well so am I
Im all alone with nobody else
If in need of help, I keep reminding myself

Riff 3 Distoção
That life is beautiful
So share a little love with the whole wide world

Riff 3
Every boy and girl sing the song
When they sing why-o,
Why-o

Riff 4
And hey, you're beautiful
And there's enough love for the whole wide world
Every boy and girl sing along
When they sing why-o,
Why-o

Riff 5
And hey,
I know that you can find a way
You're beautiful to me...
No matter what you think or say

Riff 5 1.5
Its all gonna be okay
You're beautiful to me...
Its all gonna end someday
Its all gonna be okay
You're beautiful to me

Riff 1 Limpo
  You're beautiful to me

Riff 2
   You're beautiful to me

Riff 2


Riff 1

E|-----------------------------------------------|
B|-----------------------------------------------|
G|-----6---------6---------6-----------------4h6-|
D|-----7---------7---------7-----------4h6h7-----|
A|-0-0----0-0--0----0-0--0----0--4h5h7-----------|
E|-----------------------------------------------|


Riff 2


E|-----------------------------------------------|
B|-----------------------------------------------|
G|-----6------------6------6-----------------4h6-|
D|-----7-------------------7-----------4h6h7-----|
A|-0-0----0-0--0-7*----0-0----0--4h5h7-----------|
E|-----------------------------------------------|


*Harmônico

Riff 3


E|-------------------------------------------------------|
B|-------------------------------------------------------|
G|-------------------------------------------------------|
D|-14-14-14-14-14-14-14-14/16-16-16-16-16-16-16/19-19-19-|
A|-0--0--0--0--0--0--0--0--0--0--0--0--0--0--0--0--0--0--|
E|-------------------------------------------------------|



Riff 4


E|-----------------------------------------------------|
B|-----------------------------------------------------|
G|-----------------------------------------------------|
D|-9-9-9-9-9-9-9-9/11-11-11-11-11-11-11-11-11-12\11-11-|
A|-0-0-0-0-0-0-0-0-0--0--0--0--0--0--0--0--0--0--0--0--|
E|-----------------------------------------------------|


Riff 5


E|-------------------------------------|
B|-------------------------------------|
G|-----------------7-7-7-7-7-7-6b7r6p0-|
D|-5-5-5-5-5-5-5-5-7-7-7-7-7-7---------|
A|-5-5-5-5-5-5-5-5-5-5-5-5-5-5---------|
E|-3-3-3-3-3-3-3-3---------------------|



E|----------------------------------------|
B|----------------------------------------|
G|-----2---------2---------2---------2----|
D|-2-2-x--2-2--2-x--2-2--2-x--2-2--2-x--2-|
A|-0-0-0--0-0--0-0--0-0--0-0--0-0--0-0--0-|
E|----------------------------------------|
452 exhibiciónes

Comentarios 2

Composición: Aksim2000 / Bob Faria / Chrystian Lima / Emppu Vuorinen / Glenn Slater / Kevin Sherry / Koichi Fujimoto / Larry Jacks / Michael Angelakos / Michael Spearman / Rob Hyman / Yuyo Montes
Ese no és el compositor? Avisenos.
Contribución: rhino2009
Exhibir acordes »
publicidad
cerrar