So What

Pink

 Pink
Tono: A
		
(intro)


E|------------------------------------------|
B|------------------------------------------|
G|-----------2------------------------------|
D|--4--2--4-----4--2------------------------|
A|--------------------4---4--2--4--4--2-----|
E|---------------------------------------2--|


(tocar a intro até no refrão)

na na na na na na na na na na na na

I guess I just lost my husband
I don't know where he went
So I'm gonna drink my money
Not gonna pay his rent
I got a brand new attitude, I'm gonna wear it tonight
I'm gonna get in trouble
I wanna start a fight
na na na na na na na na
I wanna start a fight
na na na na na na na na
I WANNA START A FIGHT

(refrão - tocar todas as notas com pestana)

( A C#9  F#m  D9 )
So, So What i'm still a rock star
I got my rock moves
And I don't need you
And guess what
I'm having more fun
Now that we're done
I'm going to show you tonight
I'm alright, I'm just fine and you're a tool
So, So what, I am a rockstar I got my rock moves
And I don't want you tonight

(repete primeiro solo depois da próxima frase)

(Unh Check my flow Uohhh)
The Waiter just took my table and gave it to Jessica Simpson.
I guess I'll go sit with drum boy at least he knows how to hit.
One of the songs on the radio, that somebody is gonna die
I'm going to get in trouble, my ex gonna start a fight

Nananana he's going to start a fight, nanananana we're all
going to get into a fight

(refrão)

(solo acompanha a proxima estrofe até o refrão)

E|------------------------------------------------------------|
B|---10----------10----------10-------------------------------|
G|-------9--7--6----9--7--6------9--7--6--2--4--6--7----------|
D|------------------------------------------------------------|
A|------------------------------------------------------------|
E|------------------------------------------------------------|


You weren't fair,
You never were
you wan't it all but that's not fair
I gave you life
I gave my all
You weren't fair, you let me fall

(refrão)
No No No No
I don't want you tonight, you weren't fair, I'm going to show you tonight
I'm alright I'm just fine and you're a tool
So, So what, I am a rockstar I got my rock moves
And I don't want you tonight

(repete primeiro solo)

ba da da da ta ta pffftt"

(solo é tocado durante o final do ultimo refrão)

E|------------------------------------------------------------|
B|---10----------10----------10-------------------------------|
G|-------9--7--6----9--7--6------9--7--6--2--4--6--7----------|
D|------------------------------------------------------------|
A|------------------------------------------------------------|
E|------------------------------------------------------------|
Texto Columnas
Alterar tom ½ tono ½ tono
sintonización acordes esconder tabs más »

Comentarios 1

  • Thaís Thaís: Publicado en 20/06/2013 08:40

    Massa!

Composición: Alecia Moore / Max Martin / Shellback
Ese no és el compositor? Avisenos.
Contribución: drugstein Correcciónes: piu , Freed e mais 2 »
  1. Sweet Child O' Mine - Guns N' Roses mantiene 3.056 exhibiciones
  2. Wonderwall - Oasis mantiene 2.258 exhibiciones
  3. All Of Me - John Legend mantiene 1.859 exhibiciones
  4. Stairway To Heaven - Led Zeppelin mantiene 1.572 exhibiciones
  5. Nothing Else Matters - Metallica mantiene 1.525 exhibiciones
  6. When I Was Your Man - Bruno Mars mantiene 1.430 exhibiciones
  7. The Scientist - Coldplay mantiene 1.402 exhibiciones
  8. More Than Words - Extreme mantiene 1.380 exhibiciones
  9. Hey Jude - The Beatles mantiene 1.348 exhibiciones
  10. Wake Me Up - Avicii mantiene 1.117 exhibiciones
  1. The Beatles- mantiene 21.963 exhibiciones
  2. Guns N' Roses- mantiene 7.179 exhibiciones
  3. Metallica- mantiene 5.754 exhibiciones
  4. Coldplay- mantiene 5.021 exhibiciones
  5. Red Hot Chili Peppers- mantiene 4.881 exhibiciones
  6. Oasis- mantiene 4.704 exhibiciones
  7. Bruno Mars- mantiene 4.574 exhibiciones
  8. Nirvana- mantiene 4.093 exhibiciones
  9. One Direction- mantiene 3.814 exhibiciones
  10. Green Day- mantiene 3.366 exhibiciones
Exhibir acordes »

Acordes y tabs

Aprenda

Studio Sol

©1996 - 2014 Cifra Club · el primero, mayor y más accedido del Brasil · 337 mil músicas · 6.2 millones de personas registradas

publicidad
cerrar