So What

Pink

 Pink
Tono: D
		
Intro:


E|------------------------------------------|
B|------------------------------------------|
G|-----------2------------------------------|
D|--4--2--4-----4--2------------------------|
A|--------------------4---4--2--4--4--2-----|
E|---------------------------------------2--|


na na na na na na na na na na na na

I guess I just lost my husband
I don't know where he went
So I'm gonna drink my money
Not gonna pay his rent
I got a brand new attitude, I'm gonna wear it tonight
I'm gonna get in trouble
I wanna start a fight
na na na na na na na na
I wanna start a fight
na na na na na na na na
I WANNA START A FIGHT

( A C#9  F#m  D9 )
So, So What i'm still a rock star
I got my rock moves
And I don't need you
And guess what
I'm having more fun
Now that we're done
I'm going to show you tonight
I'm alright, I'm just fine and you're a tool
So, So what, I am a rockstar I got my rock moves
And I don't want you tonight

(repete primeiro solo depois da próxima frase)

(Unh Check my flow Uohhh)
The Waiter just took my table and gave it to Jessica Simpson.
I guess I'll go sit with drum boy at least he knows how to hit.
One of the songs on the radio, that somebody is gonna die
I'm going to get in trouble, my ex gonna start a fight

Nananana he's going to start a fight, nanananana we're all
going to get into a fight

(Refrão)

(Solo acompanha a proxima estrofe até o refrão)

E|------------------------------------------------------------|
B|---10----------10----------10-------------------------------|
G|-------9--7--6----9--7--6------9--7--6--2--4--7--6----------|
D|------------------------------------------------------------|
A|------------------------------------------------------------|
E|------------------------------------------------------------|


You weren't fair,
You never were
you wan't it all but that's not fair
I gave you life
I gave my all
You weren't fair, you let me fall

(Refrão)
No No No No
I don't want you tonight, you weren't fair, I'm going to show you tonight
I'm alright I'm just fine and you're a tool
So, So what, I am a rockstar I got my rock moves
And I don't want you tonight

(Repete primeiro solo)

ba da da da ta ta pffftt"

(Solo é tocado durante o final do ultimo refrão)

E|------------------------------------------------------------|
B|---10----------10----------10-------------------------------|
G|-------9--7--6----9--7--6------9--7--6--2--4--7--6----------|
D|------------------------------------------------------------|
A|------------------------------------------------------------|
E|------------------------------------------------------------|

Comentarios 1

  • Thaís Thaís: Publicado en 20/06/2013 08:40

    Massa!

Composición: Alecia Moore / Max Martin / Shellback
Ese no és el compositor? Avisenos.
Contribución: drugstein Correcciónes: pheebsrj , Bart e mais 3 »
Exhibir acordes »
publicidad
cerrar