Comfortably Numb

Pink Floyd

 Pink Floyd
Tono: D
		
Bm
Hello
                 A
Is there anybody in there ?
                    G      F#m Em
Just nod if you can hear me
   Bm
Is there anyone at home ?

Come on now
            A
I hear your feeling down
G            F#m  Em
I can ease your pain
   Bm
And get you on your feet again

Relax
                    A
I'll need some information first
G           F#m  Em
Just the basic facts
       Bm
Can you show me where it hurts?
D                          A
There is no pain you are receding
D                             A      B/G
A distant ship smoke on the horizon
C                                  G
You are only coming through in waves
C                                             G
Your lips move but I can't hear what you're saying
     D                       A
When I was a child I had a fever
   D                              A  B/G
My hands felt just like two ballons
C                                  G
Now I've got that feeling once again
                                  C
I can't explain, you would not understand
                    G
This is not how I am
A B/G C         G            D
I      have become comfortably numb.

(solo) D  A  D  A  C  G  C  G


---14vvvvvv-----12-14>15>14------------------------------------------------
------------------------------15>17vvvvvvvvvv>15--15-14--------------------
---------------------------------------------------------14----------------
-------------------------------------------------------------1412vvvvvv----
---------------------------------------------------------------------------
---------------------------------------------------------------------------



--14>12--14>(15)>14--------------------------------------------------------
-----------------------15>17---------15--14--------------------------------
---------------------------------------------14------------------/12vvvvvv-
-------------------------------------------------1412--11--9--7------------
---------------------------------------------------------------------------
---------------------------------------------------------------------------



------------------------------------------------------------------
------------------------------------------------------------------
---11-------------------119---97vvvvv----9>7------7---9---11>12---
----------14--12--14---------------------------9------------------
------------------------------------------------------------------
------------------------------------------------------------------



---15-14-12---------------------------------------------------
------------15-12---------------------------------------------
------------------12------------------------------------------
---------------------12vvvvvvvv--109vvvvvvv---1097vvvvv----
--------------------------------------------------------------
--------------------------------------------------------------



-----------------------------------------------------------
-----------------------------------------------------------
-11>(12)vvvvvvvv--9>(11)===(11)==>9>7----------------------
---------------------------------------7/97vvvvvvvvvvv-----
-----------------------------------------------------------
-----------------------------------------------------------


A B/G C         G            D
I      have become comfortably numb.
Bm
O.K.
               A
Just a little pinprick
                    G    F#m  Em
There'll be no more aaaaaaaah!
 Bm
But you may feel a little sick

Can you stand up?
                  A
I do believe it's working, good
                 G         F#m  Em
That'll keep you going through the show
     Bm
Come on it's time to go.
D                              A
There is no pain, you are receding
D                             A      B/G
A distant ship smoke on the horizon
C                                 G
You are only coming through in waves
     C                                        G
Your lips move but I can't hear what you're saying
     D                         A
When I was a child, I caught a fleeting glimpse
D                         A  B/G
Out of the corner of my eye
C                              G
I turned to look but it was gone
                           C
I cannot put my finger on it now
The child is grown
    G
The dream is gone
     A B/G C      G      D
And  I       have become comfortably numb.

(solo)

---------------------------------------------------------------
---------------------------------------------------------------
--7--9--9>(11)vvvvvv--9>(11)>9>7---7--9--9--7-------7vvvvvvv---
---------------------------------9-------------9--9------------
---------------------------------------------------------------
---------------------------------------------------------------



-------------------------------------------10----------------------------------
--------10------10--12--12>(15)>12>10--12--------------------------------------
---/11------11---------------------------------------7--9--9>(10)>9>7----------
-----------------------------------------------------------------------9vvvvvv-
-------------------------------------------------------------------------------
-------------------------------------------------------------------------------



---------------------------------------------------------------------------
----10>7-------7-----------------------------------------------------------
-----------9-------9---7-------------------------------7-------------------
--------------------------9vvvvvvvvvv--------7---7--9-----9>7---9vvvvvv----
-----------------------------------------/9--------------------------------
---------------------------------------------------------------------------



--9--9>(10)----7-------7---------------------------
-------------------10-----10>(12)vvv----10>7-------
-----------------------------------------------9---
---------------------------------------------------
---------------------------------------------------
---------------------------------------------------



-------7--------------------------------------------------------
--7--7---10>7---------------------------------------------------
--------------9>(11)>9>7---9-7----------------------------------
-------------------------9-----9-7------------------------------
-----------------------------------9-8-7-5---5vvvvvvvvvvvvvv----
-------------------------------------------7--------------------



--------------------------7-------------------------------------------------
------------------------7---10>7--------------------------------------------
--7-7-7vvvvvvv---9>(11)----------9>(11)>9>7---9-7---------------------------
--------------------------------------------9-----9>7-----------------------
------------------------------------------------------97-5-7>5---5--7-7/9--
----------------------------------------------------------------7-----------



----------------------------7----------------------------7------------------
--------------------------7---10--------7--------------7---10>7-------------
-------------7---7-9>(11)--------9>(11)---7--9--9>(11)----------9>(11)>9>7--
--7-7-7--9>7---9------------------------------------------------------------
----------------------------------------------------------------------------
----------------------------------------------------------------------------



-----------------------------------------------------------------------------
---------------------------7--------------7-7-7------------------7-7-7-------
----9-7--------------------7--------------7-7-7------------------7-7-7-------
--9-----9-7----------------7--9vvvvvvv----7-7-7--"9"vvvvvvvvvv---7-7-7--9vvv-
------------9-8-7-5---5>0----------------------------------------------------
--------------------7--------------------------------------------------------



---------------------------------------------7------------------------
--7---------------------------------------------10>7--10>(12)====>10--
--7----9>(11)>9>7-----7--9--9>(11)vvvvvvvv----------------------------
-----7-------------9--------------------------------------------------
----------------------------------------------------------------------
----------------------------------------------------------------------



----------7-------------------------------------------------------
--------7---10>7--------------------------------------------------
-9>(11)----------9>(11)>9>7-9>7---7---------------------------7---
--------------------------------9---9>7-9>7---7------------9--7---
--------------------------------------------9---9-8-7-------------
------------------------------------------------------10-7--------



-----------------------------------------------------------------------
----------7-----7>(8)>7--------------------------7-----------------7---
--------7-7-----7>(8)>7-----------------7>9>7----7-----------------7---
--9-7-9---7-----7>(8)>7-7vvvvvv-7>9------------9---9>7-----7-9>7>9-----
--------------------------------------------------------9--------------
-----------------------------------------------------------------------



------------------------------------7-----17-17-17>(19)vvv--17-19-21-21>(22)vv-
--------7---7---7--7------7---7--7--7------------------------------------------
--9>7---7---7---7--7----7-7---7--7--7------------------------------------------
------9-----7-----------------------7------------------------------------------
-------------------------------------------------------------------------------
-------------------------------------------------------------------------------



--21>(22)vvv-21-21>(22)>21--21>(22)-21>(22)-21>(22)>21--19>21>19-19-19---
--------------------------------------------------------------------------
--------------------------------------------------------------------------
--------------------------------------------------------------------------
--------------------------------------------------------------------------
--------------------------------------------------------------------------



------------------------------------------------------------------------------
--17-17-17--17>(19)>17>15----17-17-17vvvvvv---15--17-17>(18)>17>15vvv---------
--------------------------16-----------------------------------------16-16-16-
------------------------------------------------------------------------------
------------------------------------------------------------------------------
------------------------------------------------------------------------------



----------------------------10---------10----12-12>(13)-10-12-------12--
--------------------10>(12)----10>(12)----10------------------12-12-----
--14-16vvv--------------------------------------------------------------
-----------14-12--------------------------------------------------------
-----------------14-----------------------------------------------------
------------------------------------------------------------------------



-------------------------------------------------------------
-12>(15)>12--12-10---------------------------------------7---
-------------------9>(11)>9>0--9>7---7-9>7---------------7---
-----------------------------------9-------9-7---------------
-----------------------------------------------9-8-7-5-------
-------------------------------------------------------------



-----------------------------------7--7--7--7---7---7---7--7-7--7---7--7--
---7--7--7--7--7-----7---7---7--7--7--7--7--7---7---7---7--7-7--7---7--7--
---7--7--7--7--7-----7---7---7--7-----------------------------------------
-------------------9---9---9----------------------------------------------
--------------------------------------------------------------------------
--------------------------------------------------------------------------



---7-----------------------------------------------
------10-------------------------------------------
----------9>(11)-9--7------------------------------
----------------------9-9-9-7----7-7>9-9>7-9vvvvv--
---------------------------------------------------
---------------------------------------------------
Texto Columnas
Alterar tom ½ tono ½ tono
sintonización acordes esconder tabs más »

Comentarios 48

  • Victor Hugo Victor Hugo: Publicado en 14/03/2014 20:34

    Video aaauauuuullaaaaaaaa

  • Lucas Lucas: Publicado en 28/02/2014 00:45

    Vídeo aula please

  • lucas.andrade.96558061 lucas.andrade.96558061: Publicado en 26/02/2014 20:25

    solo massa d++, na guitarra fica massa, peguei mais ou menos no violão ner

  • giovanni.rodrigues25 giovanni.rodrigues25: Publicado en 01/01/2014 00:31

    como eu faço um slide da 7 na 97? rsrsrsrs tá errado lá no solo kkkk

    • Victor Hugo Victor Hugo: Publicado en 14/03/2014 20:34

      é nove e sete só que rapidao sem espaço de troca!

  • pedro.brows pedro.brows: Publicado en 29/12/2013 14:26

    Galera mals aew mas é muito fácil pra quê vídeo aula?

  • Leonardo Leonardo: Publicado en 06/11/2013 17:15

    o video esta errado

  • emerson.lonardoni emerson.lonardoni: Publicado en 26/05/2013 13:29

    galera achei no youtube uma v

  • Revolt´s Revolt´s: Publicado en 08/05/2013 11:31

    vamos todospedir a videoaula,no começo da page.de o e-mail e vamo que vamo!!

  • Diego Diego: Publicado en 22/04/2013 20:32

    Cade a video-aula carajQuery1720845158304553479_1366673492482???

Exhibiendo 10 de 48 comentarios Mostrar más ver todo »
Composición: David Gilmour / Fredrik Nilsson / Michael C.Starr / Ralph Rieker / Raul Seixas / Roger Waters
Ese no és el compositor? Avisenos.
Contribución: slerzera Correcciónes: Guedoncio e mais 2 »
  1. Sweet Child O' Mine - Guns N' Roses mantiene 2.742 exhibiciones
  2. Wonderwall - Oasis mantiene 2.042 exhibiciones
  3. All Of Me - John Legend mantiene 1.616 exhibiciones
  4. When I Was Your Man - Bruno Mars mantiene 1.580 exhibiciones
  5. Nothing Else Matters - Metallica mantiene 1.557 exhibiciones
  6. Stairway To Heaven - Led Zeppelin mantiene 1.476 exhibiciones
  7. More Than Words - Extreme mantiene 1.426 exhibiciones
  8. Hey Jude - The Beatles mantiene 1.408 exhibiciones
  9. The Scientist - Coldplay mantiene 1.323 exhibiciones
  10. Wake Me Up - Avicii mantiene 1.110 exhibiciones
  1. The Beatles- mantiene 21.392 exhibiciones
  2. Guns N' Roses- mantiene 7.167 exhibiciones
  3. Metallica- mantiene 6.861 exhibiciones
  4. Red Hot Chili Peppers- mantiene 5.255 exhibiciones
  5. Coldplay- mantiene 5.161 exhibiciones
  6. Nirvana- mantiene 5.132 exhibiciones
  7. One Direction- mantiene 4.644 exhibiciones
  8. Bruno Mars- mantiene 4.579 exhibiciones
  9. Oasis- mantiene 4.527 exhibiciones
  10. Green Day- mantiene 3.576 exhibiciones
Exhibir acordes »

Acordes y tabs

Aprenda

Studio Sol

©1996 - 2014 Cifra Club · el primero, mayor y más accedido del Brasil · 336 mil músicas · 6.2 millones de personas registradas

publicidad
cerrar