Meu Universo

PG

 PG
Tono: G
		
Intro:

E|----------------------------------------------------------------------
B|----------------------------------------------------------------------
G|------------0-----2---2-----4----2------0------------0----2----2---4--
D|--------0------0----0----0----0-----0------------0------0---0----0----
A|--------------------------------------------3-------------------------
E|---3------------------------------------------------------------------



E|----------------------------------------------------------------------
B|----------------------------------------------------------------3-----
G|------------0---2---2---4---2---0---------4-5-5/7-5-4h5h4h2-------2---
D|--------0-----0---0---0---0---0------------------------------0--------
A|----------------------------------------------------------------------
E|---3------------------------------------------------------------------


                     G
Que sejas meu universo
           C9                 D4/F#  G
Não quero dar-te só um pouco do meu tempo
           Am7             Am7/G      D
Não quero dar-te um dia apenas da semana

                    G
Que sejas meu universo
           C9                D4/F#   G
Não quero dar-te as palavras como gotas
         Am7                 Am7/G            D
Quero que saia um dilúvio de bençãos da minha boca

D4/E          D4/F#   G
    Que sejas meu universo
           C9                 D4/F# G
Que sejas tudo o que sinto e o que penso
          C9                       Am7
Que de manhã sejas o primeiro pensamento
        Am7/G       D
E a luz em minha janela

D4/E           D4/F#  G
    Que sejas meu universo
            C9                  D4/F#  G
Que enchas cada um dos meus pensa.....mentos
              C9                           Am7
Que a tua presença e o teu poder sejam alimento
               Am7/G   D   D4/F#
Jesus este é o meu desejo

                     G
Que sejas meu universo
           C9                 D4/F#  G
Não quero dar-te só uma parte dos meus anos
           Am7             Am7/G      D
Te quero dono do meu tempo e dos meus planos

                     G
Que sejas meu universo
           C9                 D4/F#  G
Não quero a minha vontade  Quero agradar-te

           Am7             Am7/G      D
E cada sonho que há em mim quero entregar-te
D4/E          D4/F#   G
    Que sejas meu universo
           C9                 D4/F# G
Que sejas tudo o que sinto e o que penso
          C9                       Am7
Que de manhã sejas o primeiro pensamento
        Am7/G       D
E a luz em minha janela

D4/E           D4/F#  G
    Que sejas meu universo
            C9                  D4/F#  G
Que enchas cada um dos meus pensa.....mentos
              C9                           Am7
Que a tua presença e o teu poder sejam alimento
               Am7/G   D   D4/F#
Jesus este é o meu desejo

(Solo 3:28)


|---------------7--------------------------8--------------------------
|--8----8---10----10--8--7--8-----7--8--10---10--8--10---12--12----8---
|-----7---7------------------------------------------------------------
|----------------------------------------------------------------------
|----------------------------------------------------------------------
|----------------------------------------------------------------------



|-------------------7------------------------------------------------
|-------7---8---10----10---8----8--7--8--10--------------------------
|--7--9---------------------------------------9--7--9--7-------------
|---------------------------------------------------------5--7--5----
|--------------------------------------------------------------------
|--------------------------------------------------------------------



|---------------7----------------------------------------------------|
|-10--8------10---8----10--8--10-------------------10-12~---10-------|
|--------9-7----------------------11--9--11--12------------------12--|
|--------------------------------------------------------------------|
|--------------------------------------------------------------------|
|--------------------------------------------------------------------|


D4/E          D4/F#   G
    Que sejas meu universo
           C9                 D4/F# G
Que sejas tudo o que sinto e o que penso
          C9                       Am7
Que de manhã sejas o primeiro pensamento
        Am7/G       D
E a luz em minha janela

D4/E           D4/F#  G
    Que sejas meu universo
            C9                  D4/F#  G
Que enchas cada um dos meus pensa.....mentos
              C9                           Am7
Que a tua presença e o teu poder sejam alimento
               Am7/G   D   D4/F#
Jesus este é o meu desejo

                                       G     C9        D4/F#  G
Que sejas meu universo
                     Am7             Am7/G      D  G
Que sejas meu universo
                                     G     C9        D4/F#  G
Que sejas meu universo

Comentarios 1

Composición: JESUS A. ROMERO / VERSÃO: PG
Ese no és el compositor? Avisenos.
Contribución: junior sousa Correcciónes: NAEL »
Exhibir acordes »
publicidad
cerrar