Red Mosquito

Pearl Jam

 Pearl Jam
Tono: F
		
INTRO:


E-|-------------------|-
B-|-------------------|-
G-|-7---------------7-|-
D-|-7-7-----7-7-----7-|-
A-|-5-0h5p0-8-0h5p0-5-|-
E-|-------------------|-


VERSE:   D  F(let ring)                      D  C(let ring)


E|-2--1--------------------------------2--0----------|
B|-3--1--------------------------------3--1----------|
G|-2--2--------------------------------2--0----------|
D|-0--3--------------------------------0--2----------|
A|----------------------------------------3----------|
E|---------------------------------------------------|

the window,little red mosquito...I was not allowed to (etc.)   

D  F(let ring)                      D  C  F  C


E|-2--1--------------------------------2--0--1--0------|
B|-3--1--------------------------------3--1--1--1------|
G|-2--2--------------------------------2--0--2--0------|
D|-0--3--------------------------------0--2--3--2------|
A|----------------------------------------3-----3------|
E|-----------------------------------------------------|

I saw the sun go down, and now..(etc)..somewhere in 

PRE CHORUS:


E-|-------------------|-
B-|-------------------|-
G-|-7---------------7-|-
D-|-7-7-----7-7-----7-|-
A-|-5-0h5p0-8-0h5p0-5-|-
E-|-------------------|-


CHORUS:    F                  C


E-|------------------|-------------|-
B-|---------10-------|-------5-----|-
G-|------10----10----|-----5---5---|-
D-|---10----------10-|---5-------5-|-
A-|-8----------------|-3-----------|-
E-|------------------|-------------|-    


D#            A#            C


E-|-------------|-------------|------|-
B-|-------8-----|-------3-----|------|-
G-|-----8---8---|-----3---3---|-5--5-|-
D-|---8-------8-|---3-------3-|-5--5-|-
A-|-6-----------|-1-----------|-3--3-|-
E-|-------------|-------------|------|-

LITTLE C RIFF AT END OF CHORUS:


E-|-----------|--------------------|-
B-|-----------|--------------------|-
G-|-10--9-----|-(second--10--9--12-|-
D-|--------10-|--chorus)-----------|-
A-|-----------|--------------------|-
E-|-----------|--------------------|-

Comentarios 0

Composición: Al Schvitz / Billy Joel / Eddie Vedder / R. Gill / Ray Hedges
Ese no és el compositor? Avisenos.
Consigo tocarSin embargo, para tocar esta canción. ¡Sé el primero!
    Aún no puedo reproducir
    Exhibir acordes »
    publicidad
    cerrar