Dependo de Ti

Paulo César Baruk

 Paulo César Baruk
Tono: E
		

E|-----------2-----------------2----------------------------------------|
B|-5--4--5-------5-4--5--4--5-----5-4--5--4--0-5-5-0h2-0-5-2------------|
G|----------------------------------------------------------------------|
D|----------------------------------------------------------------------|
A|-4-4--4--4---4------2-2--2--2-2--------------0--------0-0-------------|
E|-------------------------------------4-4--4---------------------------|



E|--------2--4--2-----------------2--4--2-----------2--4--2-------------|
B|-2-4-5-----------5--4--5--4--5-----------5--4--5------------4--0--2---|
G|----------------------------------------------------------------------|
D|----------------------------------------------------------------------|
A|-4-4-4-4--4--4--4------2-2-2-2--2--2--2---------------------0-0--0----|
E|-----------------------------------------4-4-4-4--4--4--4-------------|


  C#m	    	   B
Louvar-Te é bem mais do que eu mereço,
E/G#          A9
Adorar-Te mais profundo do que eu pensei,
C#m	   B
Servir-Te é tudo o que eu espero
E/G#              A9
O que mais quero é estar mais junto a Ti.

C#m                 B
Derramar perante Ti os meus anseios
E/G#                     A9
Minha oferta nessa hora é a verdade,
C#m                        B
E Te mostrar os meus pequenos sonhos,
E/G#                 A9
Oh Senhor, como eu dependo de Ti...

Refrão:
          E
Para me curar,
            B
Para me ensinar
     C#m         B    A9
O caminho em que devo seguir.
         E
Podes me usar Senhor,
              B
Como Tu bem queres...
        A9
Abro o meu coração

C#m	          B
Louvar-Te é bem mais do que eu mereço,
E/G#               A9
Adorar-Te mais profundo do que eu pensei,
C#m	  B
Servir-Te é tudo o que eu espero
E/G#                  A9
O que mais quero é estar mais junto a Ti.

C#m                 B
Derramar perante Ti os meus anseios
E/G#                   A9
Minha oferta nessa hora é essa musica Pai.
C#m                      B
E Te mostrar os meus maiores sonhos,
E/G#               A9
Oh Senhor, como eu dependo de Ti
196 exhibiciónes

Comentarios 15

  • Felipe Felipe: Publicado en 14/06/2014 16:00

    coloquem capo na segunda casa e o tom fica em D, dae da pra fazer em Bm7

  • marlon marlon: Publicado en 10/02/2014 13:13

    não consigo deixar a cifra no tom Bm7

  • marlon marlon: Publicado en 10/02/2014 13:12

    fica melhor no tom Bm7

  • Rafael Rafael: Publicado en 27/01/2014 15:50

    video aula!

  • Wellington Wellington: Publicado en 11/10/2013 12:56

    VIDEOO AULAAA !!

  • cesarxdaugusto cesarxdaugusto: Publicado en 14/08/2013 16:42

    Vamos pedir a video aula

  • onslaugh onslaugh: Publicado en 29/05/2013 12:18

    LINDISSIMO LOUVOR!!

    • renan.souza.007 renan.souza.007: Publicado en 05/08/2013 23:13

      eu queria saber o ritmo dessa musica alguém sabe dizer?

    • wezinho_flp wezinho_flp: Publicado en 05/12/2013 17:35

      Comentário removido

    • wezinho_flp wezinho_flp: Publicado en 05/12/2013 17:36

      Refrão : E ↓↓↑↑↓ B ↓↓↑↑↓ C#m7 ↓↓↑↑↓ A9 ↓↓↑↑↓ E ↓↓↑↑↓ B ↓↓↑↑↓ A9 ↓↓↑↑↓ ↓↓↑↑↓

Exhibiendo 10 de 15 comentarios Mostrar más ver todo »
Composición: Sabe quien és el compositor? Envíenos. Contribución: leo_eagle Correcciónes: Marcos , joão davi e mais 15 »
Exhibir acordes »
publicidad
cerrar