Paramore

Still Into You

71.803 exibições
Tom: F
Intro/Verso 2x:

E|---------------------------------------------------------------------------------------|
B|---------------------------------------------------------------------------------------|
G|---------------------------------------------------------------------------------------|
D|------------------2-----------------2--------------------2---------------------2-------|
A|------------0--3--------------0--3----3-----------0--3------------------0--3-----3-----|
D|----3----3------------3----3--------------3----3-----------------3----3----------------|



E|---------------------------------------------------------------------------------------|
B|---------------------------------------------------------------------------------------|
G|---------------------------------------------------------------------------------------|
D|-------------------2------------------2----------------------2-------------------2-----|
A|----5----5---0--3------5----5---0--3-----3----5----5---0--3-------5----5---0--3-----3--|
D|---------------------------------------------------------------------------------------|


Guitar 2:

E|------------------------|
B|----101010-8------------|
G|--------------10-9------|
D|--------------------10--|
A|------------------------|
D|------------------------|


Can't count the years on one hand,
that we've been together.
I need the other one to hold you,
make you feel, make you feel better.
It's not a walk in the park,
to love each other.
But when our fingers interlock,
can't deny, can't deny your worth it.

Refrão:
(mute)                Bb5
Cause after all this time,
      C5        F5
I'm still into you.
(strum)                  Bb5       C5
I should be over all the butterflies,
              F5
But I'm into you.  (I'm into you)
                     Bb5        C5
And baby even on our worst nights,
          F5
I'm into you.  (I'm into you)
                       Bb5         C5
Let 'em wonder how we got this far,
                               D5       F5
Cause I don't really need to wonder at all.
                      Bb5
Yeah after all this time,
      C5        F5
I'm still into you.

Verso Intro Riff:

E|---------------------------------------------------------------------------------------|
B|---------------------------------------------------------------------------------------|
G|---------------------------------------------------------------------------------------|
D|------------------2-----------------2--------------------2---------------------2-------|
A|------------0--3--------------0--3----3-----------0--3------------------0--3-----3-----|
D|----3----3------------3----3--------------3----3-----------------3----3----------------|


Verso 2x:

E|---------------------------------------------------------------------------------------|
B|---------------------------------------------------------------------------------------|
G|---------------------------------------------------------------------------------------|
D|------------------2-----------------2--------------------2---------------------2-------|
A|------------0--3--------------0--3----3-----------0--3------------------0--3-----3-----|
D|----3----3------------3----3--------------3----3-----------------3----3----------------|



E|---------------------------------------------------------------------------------------|
B|---------------------------------------------------------------------------------------|
G|---------------------------------------------------------------------------------------|
D|-------------------2------------------2----------------------2-------------------2-----|
A|----5----5---0--3------5----5---0--3-----3----5----5---0--3-------5----5---0--3-----3--|
D|---------------------------------------------------------------------------------------|


Verso 2:
Recount the night that I first,
met your mother.
And on the drive back to my house,
I told you that, I told you that I loved ya.
You felt the weight of the world,
fall off your shoulder.
And to your favorite song,
we sang along, to the start of forever.

Refrão:
(mute)              Bb5
And after all this time,
      C5        F5
I'm still into you.
(strum)                  Bb5        C5
I should be over all the butterflies,
              F5
But I'm into you.  (I'm into you)
                     Bb5        C5
And baby even on our worst nights,
          F5
I'm into you.  (I'm into you)
                       Bb5         C5
Let 'em wonder how we got this far,
                               D5       F5
Cause I don't really need to wonder at all.
                      Bb5
Yeah after all this time,
      C5        F5
I'm still into you.

Solo 4x:

E|--------------------------------------------|
B|--------------------------------------------|
G|--------------------------------------------|
D|-------3--2----------3--2-------------------|
A|-------------3-------------3--5~--7-8--3~--|
D|----3-------------3-------------------------|


Verso 3:
Some things just, some things just make sense.
And one of those is you and I. (ohhhh)
Some things just, some things just make sense.
And even after all this time.

(mute)
Bb5 C5          F5
      I'm into you.
            Bb5
Baby not a day goes by,
          C5       F5
that I'm not into you.

Refrão:
(strum)                 Bb5        C5
I should be over all the butterflies,
              F5
But I'm into you.  (I'm into you)
                     Bb5        C5
And baby even on our worst nights,
          F5
I'm into you.  (I'm into you)
                       Bb5        C5
Let 'em wonder how we got this far,
                               D5       F5
Cause I don't really need to wonder at all.
                      Bb5
Yeah after all this time,
      C5        Bb5
I'm still into you.
      C5        Bb5
I'm still into you.
      C5        F5
I'm still into you.
    Composição: Hayley WilliamsColaboração e revisão:
    • dudaalves1999
    • icarorobertoo
    • Ernane

    Comentários 15

    • Rosane Rosane: Postado em 07/06/2014 16:04

      A afinação é padrão.

    • michel.sena.73 michel.sena.73: Postado em 10/09/2013 21:04

      e uma musica muito boa porem facil para iniciantes e para qualquer outro ne?

    • andrebagesta andrebagesta: Postado em 17/08/2013 17:43

      podiam fazer video aula da versão acústica da música, é muito dahora

    • dr.peuga dr.peuga: Postado em 13/06/2013 10:58

      a afinacao é a normal?

      • Guilherme Guilherme: Postado em 07/08/2013 21:04

        Muda a 6° corda de MI pra RÉ q é melhor ;D

    • Lucas Lucas: Postado em 02/06/2013 13:26

      Bem facil

    • Vanessa Vanessa: Postado em 29/05/2013 15:07

      Podiam fazer uma vídeo aula? né!

    • Vanessa Vanessa: Postado em 29/05/2013 14:49

      podiam fazer uma video aula? né!

    • ritanog ritanog: Postado em 28/04/2013 18:46

      caramba, cadê a outra cifrajQuery1720615711024031043_1367184658760?? essa nem tem o solinho.

      • icarorobertoo icarorobertoo: Postado em 29/04/2013 18:07

        Bem que eu tentei por de volta mais não consegui ;S

    Exibindo 10 de 15 comentários Mostrar mais ver todos »

    conseguiu tocar?

    • Macrone
    • sabynna1
    • Pablo
    • Taina
    • Rosane
    • Ana Célia
    • reehx3
    • •••

    covers

    Grave um vídeo tocando Still Into You e mande pra gente!

    Ex.: http://www.youtube.com/watch?v=0IvSvIwGdwk
    ver covers de outras músicas »
    0:00 / 0:00

    Capítulos

      1 versão de baixoexibiçõescontribuição e correção
      2 versões de Guitar Proformatodownloadscontribuição
      play/pausefechar subir/descer velocidade
      6ª corda E5ª corda A4ª corda D3ª corda G2ª corda B1ª corda E
        Exibir acordes
        Feedback
        publicidad
        fechar
        ok