Ain't It Fun

Paramore

 Paramore
Tono: E
		
Introdução: 

(Riff Principal)


E|------------------------------------------|
B|------------------------------------------|
G|-------4h6-----------4h6------------------|  (3x)
D|-6---------x-x-6---------x----------------|
A|----7-------------7-----------------------|
E|------------------------------------------|



E|------------------------------------------|
B|------------------------------------------|
G|-------4h6---6----------------------------|
D|-6---------x------------------------------|
A|----7-------------------------------------|
E|------------------------------------------|



Primeira Parte:


E|------------------------------------------|
B|------------------------------------------|
G|-------4h6-----------4h6------------------|  (4x)
D|-6---------x-x-6---------x----------------|
A|----7-------------7-----------------------|
E|------------------------------------------|



E|------------------------------------------|
B|-5----------------------------------------|
G|----6--4h6-----------4h6------------------|
D|-----------x-x-6---------x----------------|
A|------------------7-----------------------|
E|------------------------------------------|



E|------------------------------------------|
B|------------------------------------------|
G|-------4h6-----------4h6------------------|  (3x)
D|-6---------x-x-6---------x----------------|
A|----7-------------7-----------------------|
E|------------------------------------------|


I don't mind
Letting you down easy
But just give it time
If it don't hurt now
Then just wait
Just wait a while
You're not the big fish in the pond
No more
You are what they're feeding on

So what are you gonna do
When the world don't orbit around you?


E|------------------------------------------|
B|------------------------------------------|
G|-------4h6-----------4h6------------------|  (2x)
D|-6---------x-x-6---------x----------------|
A|----7-------------7-----------------------|
E|------------------------------------------|


So what are you gonna do
When the world don't orbit around you?


E|------------------------------------------|
B|------------------------------------------|
G|-------4h6-----------4h6------------------|  
D|-6---------x-x-6---------x----------------|
A|----7-------------7-----------------------|
E|------------------------------------------|



E|------------------------------------------|
B|------------------------------------------|
G|-------4h6---6----------------------------|
D|-6---------x------------------------------|
A|----7-------------------------------------|
E|------------------------------------------|



Primeiro Refrão:

          A5
Ain't it fun 
 C#5   E5      A5         C#5  E5
Living in the real world?
          A5
Ain't it good 
 C#5  E5    A5   C#5  E5
Being all alone?


Segunda Parte:


E|------------------------------------------|
B|------------------------------------------|
G|-------4h6-----------4h6------------------|  (4x)
D|-6---------x-x-6---------x----------------|
A|----7-------------7-----------------------|
E|------------------------------------------|



E|------------------------------------------|
B|-5----------------------------------------|
G|----6--4h6-----------4h6------------------|
D|-----------x-x-6---------x----------------|
A|------------------7-----------------------|
E|------------------------------------------|



E|------------------------------------------|
B|------------------------------------------|
G|-------4h6-----------4h6------------------|  (2x)
D|-6---------x-x-6---------x----------------|
A|----7-------------7-----------------------|
E|------------------------------------------|



E|----------------------7--4\---------------|
B|-------------9--7--5----------------------|
G|-------4h6--------------------------------|  
D|-6---------x------------------------------|
A|----7-------------------------------------|
E|------------------------------------------|


Where you're from?
You might be the one 
Who's running things
Well, you could ring anybody's bell 
And get what you want
You see it's easy to ignore 
A trouble
When you're living in a bubble


E|------------------------------------------|
B|------------------------------------------|
G|------------------------------------------|
D|6-----6--7--6-----------6-----6--7--6-----|
A|---7-----------9-7--4-x----7-----------9-7|
E|------------------------------------------|



E|------------------------------------------|
B|------------------------------------------|
G|-------4h6-----------4h6------------------|  (2x)
D|-6---------x-x-6---------x----------------|
A|----7-------------7-----------------------|
E|------------------------------------------|


So what are you gonna do
When the world don't orbit around you?


E|------------------------------------------|
B|------------------------------------------|
G|------------------------------------------|
D|6-----6--7--6-----------6-----6--7--6-----|
A|---7-----------9-7--4-x----7-----------9-7|
E|------------------------------------------|



E|------------------------------------------|
B|------------------------------------------|
G|-------4h6-----------4h6------------------|
D|-6---------x-x-6---------x----------------|
A|----7-------------7-----------------------|
E|------------------------------------------|



E|------------------------------------------|
B|------------------------------------------|
G|-------4h6---6----------------------------|
D|-6---------x------------------------------|
A|----7-------------------------------------|
E|------------------------------------------|

                      
So what are you gonna do
When nobody wants to fool with you? 


Segundo Refrão:

          A5
Ain't it fun 
 C#5   E5      A5         C#5  E5
Living in the real world?
          A5
Ain't it good 
 C#5  E5    A5   C#5  E5
Being all alone?
          A5
Ain't it good to be on your own?
          E5                     B5
Ain't it fun you can't count on no one?
          A5
Ain't it good to be on your own?
          E5                     B5
Ain't it fun you can't count on no one?
          A5
Ain't it fun
 C#5   E5      A5         C#5  E5
Living in the real world?


Ponte:

E5
   Don't go cryin' 
To your mama
'Cause you're on your own 
In the real world

Don't go cryin' 
To your mama
'Cause you're on your own 
In the real world

A5
   Don't go cryin' 
To your mama
E5
   'Cause you're on your own 
In the real world

A5
   Don't go cryin' 
To your mama
E5
   'Cause you're on your own 
In the real world

Ain't it fun? Ain't it fun?
Baby, now you're one of us
Ain't it fun? Ain't it fun? 
Ain't it fun?


Terceiro Refrão:

          A5
Ain't it fun 
 C#5   E5      A5         C#5  E5
Living in the real world?
          A5
Ain't it good
               C#5  E5    A5   C#5  E5
Ain't it good being all alone?
          A5
Ain't it fun 
 E5    B5      A5
Living in the real world?
             E5               B5
('Cause the world don't orbit around you)
          A5
Ain't it good
               C#5  E5    A5   C#5  E5
Ain't it good being all alone?


Final:

(Riff 1)


E|-----------------------------------------------------|
B|-------14-17p14----14---------14-17p14----14---------|
G|-13h16----------16----x-13h16----------16----x-------|
D|-----------------------------------------------------|
A|-----------------------------------------------------|
E|-----------------------------------------------------|



E|-----------------------------------------------------|
B|-------14-17p14----14---17b19--17b19--17-14----------|
G|-13h16----------16----x---------------------x--------|
D|-----------------------------------------------------|
A|-----------------------------------------------------|
E|-----------------------------------------------------|



E|-----------------------------------------------------|
B|-------14-17p14----14---------14-17p14----14---------|
G|-13h16----------16----x-13h16----------16----x-------|
D|-----------------------------------------------------|
A|-----------------------------------------------------|
E|-----------------------------------------------------|



E|--------------------------------------16-------------|
B|-------14-17p14----14---17b19--17b19-----14----------|
G|-13h16----------16----x---------------------x--------|
D|-----------------------------------------------------|
A|-----------------------------------------------------|
E|-----------------------------------------------------|


Don't go cryin' 
To your mama
'Cause you're on your own 
In the real world

Don't go cryin' 
To your mama 
'Cause you're on your own 
In the real world (world)

(Riff 2)


E|-----4-----4--5--4------------4-----4--5--4--5/7-----|
B|-x-x----5-----------7-5-----x----5-------------------|
G|-------------------------6---------------------------|
D|-----------------------------------------------------|
A|-----------------------------------------------------|
E|-----------------------------------------------------|



E|-----------------------------------------------------|
B|-----------------------------------------------------|
G|------4h6---------4h6--------4h6---------4h6---------|
D|-6--------x-x-6-------x-6--------x-x-6---------------|
A|----7-----------7----------7-----------7-------------|
E|-----------------------------------------------------|


Don't go cryin' 
To your mama
'Cause you're on your own 
In the real world

Don't go cryin' 
To your mama
'Cause you're on your own 
In the real world

Don't go cryin' 
To your mama
'Cause you're on your own 
In the real world (ohhhhh)

Don't go cryin' 
To your mama
'Cause you're on your own 
In the real world
Don't go cryin' 
Don't go cryin'
Don't go cryin'
Don't go cryin'


Riff dos Refrãos – Guitarra 2:


E|-7-7-7-7-7-7-7-7...----------------------------------|
B|-----------------------------------------------------|
G|-4-4-4-4-4-4-4-4...----------------------------------|
D|-----------------------------------------------------|
A|-----------------------------------------------------|
E|-----------------------------------------------------|


Passagens – Guitara 3:


E|-7-7--7-7--7-7--9-7----------------------------------|
B|-----------------------------------------------------|
G|-4-4--4-4--4-4--7-4----------------------------------|
D|-----------------------------------------------------|
A|-----------------------------------------------------|
E|-----------------------------------------------------|



Riff dos Refrãos – Guitarra 3: 


E|-7-7------7-7----------------------------------------|
B|-----9---------7----7/9--5---------------------------|
G|-----------------------------------------------------|
D|-----------------------------------------------------|
A|-----------------------------------------------------|
E|-----------------------------------------------------|

Comentarios 3

  • henrique.vieira.7399786 henrique.vieira.7399786: Publicado en 09/02/2015 14:05

    isso ganhou premio de melhor musica de rock ???? caralho..........................................................................

  • marcos vinicius marcos vinicius: Publicado en 20/08/2014 20:09

    porque paramore ficou tão ruim?

  • Chris Chris: Publicado en 13/06/2014 17:17

    ouvi na pan. e amei

Composición: Sabe quien és el compositor? Envíenos. Contribución: Davi Correcciónes: v.inny e mais 1 »
Exhibir acordes »
publicidad
cerrar