Underground In America

Pantera

 Pantera
Tabbed By: Tycho (T*)

intro 
G|---------------------|
D|-----------4---------|
A|-----4--3-----2--0---|
E|--2------------------|

G|-----------------------------------|
D|-----------4---------4-------------|
A|-----4--3-----2--0------4--3--2--0-|
E|--2--------------------------------|

G|--------| 
D|--4-----|  X4
A|----4-3-|  
E|--------|

Back to top

20 exhibiciónes

Comentarios 0

Consigo tocarSin embargo, para tocar esta canción. ¡Sé el primero!
    Aún no puedo reproducir
    publicidad
    cerrar