I Write Sins Not Tragedies

Panic! At The Disco

 Panic! At The Disco
Tono: G
		
Cifra por : Artur Moreria de Oliveira ( Deaartur@hotmail.com )

Afinação: eBGDAD (Drop-D)

         Intro

        e|-------------------------------| 
        B|-------------------------------|
        G|----5--4---5--4---5--4---5--4--|      
        D|---2--2---2--2---2--2---2--2---|
        A|--0------0------0------0-------| 
        D|-------------------------------| 




        e|-------------------------------| 
        B|----3------3-------------------|
        G|---5--54--5--54--45-45--45-45--|                                              
        D|--4------4------3------3-------|
        A|-------------------------------| 
        D|-------------------------------| 


       Chorus


        e|-------------------------------| 
        B|-------------------------------|
        G|--2----------------------------|                                             
        D|--2--3--0----------------------|
        A|--0--3--0----------------------| 
        D|-----3--0----------------------| 


      Post - Chorus


       e|-------------------------------| 
       B|-------------------------------|
       G|-----7-4------5-7-----4-5------|                           
       D|--3--7-4---3--5-7---3-4-5---3--|
       A|--3--5-2---3--3-5---3-2-3---3--| 
       D|--3--------3----------------3--| 


     OUTRO


      e|-------------------------------| 
      B|-------------------------------|
      G|-----7-4------5-7-----4-5------|                                      
      D|--3--7-4---3--5-7---3-4-5---3--|                                             
      A|--3--5-2---3--3-5---3-2-3---3--| 
      D|--3--------3----------------3--| 



    é isso aew glr qualquer duvida ( deadartur@hotmail.com )

Comentarios 3

  • doopinho doopinho: Publicado en 28/05/2012 22:15

    Pessoal se alguem conseguir tocar como nesse video: watch?v=JPMzRAqrv9o POR FAVOR me avisem!! Valeu

    • branco1022 branco1022: Publicado en 30/07/2012 17:02

      Velho, ele ta tocando com o violão afinado em D ali...
      Afina assim que fica fácil... Eu consegui :D

  • doopinho doopinho: Publicado en 21/05/2012 19:20

    Video aula como nesse video: Panic! At The Disco - "I Write Sins Not Tragedies" ACOUSTIC - POR FAVOR!!!!!!!

Composición: Ryan Ross
Ese no és el compositor? Avisenos.
Contribución: Artur182 Correcciónes: bodão »
Exhibir acordes »
publicidad
cerrar