De Regreso Al Penal

Pala Ancha

Sin foto de Pala Ancha Compositor: Pala Ancha
Tono: F
		

1|----------------------------------------------------
2|------------2-2---2-2-3-------------2-2---2-2-------
3|---------0------2----------------0------2-----------
4|-0-0-0-3-----------------0-0-0-3--------------0-----
5|----------------------------------------------------
6|----------------------------------------------------



1|----------------------------------------------------
2|------------2-2---2-2-3-------------2-2---2-3-------
3|---------0------2----------------0------2-----2-2---
4|-0-0-0-3-----------------0-0-0-3------------------0-
5|----------------------------------------------------
6|----------------------------------------------------



1|-------6-5-6-5-6-5----------------------------------
2|3-6-3---------------3-6-3-6-3-2-5-------2-5-3-1-----
3|----------------------------------2-2---------------
4|----------------------------------------------------
5|----------------------------------------------------
6|----------------------------------------------------



1|-------6-5-6-5-6-5----------------------------------
2|3-6-3---------------3-6-3-6-3-2-5-------2-5-3--6-5-3
3|----------------------------------2-2---------------
4|----------------------------------------------------
5|----------------------------------------------------
6|----------------------------------------------------


Dm                          C
Se borro duraznito de la villa
      Bb                       F
Se llevo toda la plata del blindado
      Gm               Dm
Esa que nos habíamo afanado
         Bb                   A
La otra noche, en la general paz

        Dm                    C
Nos acosto a nosotros sus amigos
      Bb                      F
Nos dejo a todos sin un centavo
        Gm                 Dm
Ahora tiene un piso en belgrano
              Bb                     A
Y en un mercedes, se pasea en la ciudad

(estribillo)
               C                      F
Miralo a duraznito viviendo la buena vida
                   C                    F
Y nosotros que pensábamos que era retardado
               Gm                   Dm
Ahora esta rodeado por las mejores minas
                Bb                   A
Y nosotros los vivos en devoto encerrados

               C                      F
Miralo a duraznito viviendo la buena vida
                   C                   F
Y nosotros que pensábamos que era retardado
               Gm                   Dm
Ahora esta rodeado por las mejores minas
                Bb                   A
Y nosotros los vivos en devoto encerrados
           Dm
Y sin un mango.

(repite los punteos del principio)

(final de la cancion son los mismos punteos con una variacion al final)

1|---------5----------------------5-3-1-0-----------
2|-6-3-6-3----6-3-6-3-----6-3-6-3---------3---------
3|--------------------2-----------------------------
4|--------------------------------------------------
5|--------------------------------------------------
6|--------------------------------------------------
391 exhibiciónes

Comentarios 0

Consigo tocarSin embargo, para tocar esta canción. ¡Sé el primero!
    Aún no puedo reproducir
    Exhibir acordes »
    publicidad
    cerrar