Tono: E
		
Solo Introdução:


        E                       B
E|-----7---------------------------------------|
B|7/9---7-9-7-----7-9-7-------9/10--9-----9~---|
G|-------------9-6-------9-6-----------9-------|   x 2
D|---------------------------------------------|
A|---------------------------------------------|
E|---------------------------------------------|



       F#m                      A
E|-----7----------------------------|
B|-7/9---7-9-7-----7-9-7------------|
G|-------------9-6-------9-6--8/9---|
D|----------------------------------|
A|----------------------------------|
E|----------------------------------|


E
Foi bonito, foi
B9            F#m
Foi intenso, foi verdadeiro
A
Mas sincero
E              B9
Sei que fui capaz
           F#m
Fiz até demais
     A
Te quis do teu jeito
E       B9
Te amei, te mostrei
F#m                   A
Que o meu amor foi o mais profundo
E        B9
Me doei, me entreguei
     F#m      A
Fui fiel! Chorei, chorei...

 E                          B9
Hoje eu acordei, me veio a falta de você
    F#m              A
Saudade de você, saudade de você
     E                         B9
Lembrei que me acordava de manhã só pra dizer:
      F#m
 Bom dia, meu bebê!
   A
Te amo, meu bebê!

REFRÃO

E                          B9
Hoje eu acordei, me veio a falta de você
    F#m              A
Saudade de você, saudade de você
     E                         B9
Lembrei que me acordava de manhã só pra dizer:
      F#m
 Bom dia, meu bebê!
   A
Te amo, meu bebê!
1 exhibiciónes

Comentarios 0

Composición: Sabe quien és el compositor? Envíenos. Contribución: Os
Exhibir acordes »
publicidad
cerrar