Bottles To The Ground

Nofx

 Nofx
Bass Player - Stuart Cobb 
INTRO

|-------------------------|
|-------------------------|
|-------------------------|
|-00--00--00--------------|
You'll Work This Bit Out..

|-------------------------|
|-------------------------|             
|-------------------------|
|-00-3-5-3--00-3-5-3------|

This is how fat mike plays the verse...
VERSE

|-----------------------------------------------------|
|-----------------------------------------------------|
|77777777-66666666-55555555-44444444-33333333-33333333|
|-----------------------------------------------------|

This is the chores...
CHORES

|------------------------|
|------------------------|
|------3333--------------|
|33-11-----3-------------|

|------------------------|
|------------------------|
|----3333----------------|
|5555--------------------|

|------------------------|
|------------------------|
|------------------------|
|333333-555555-888888----| X 2

|------------------------|
|------------------------|
|------------------------|
|333333-444444-----------|

OUTRO

|------------------------|
|------------------------|
|--33--55--33------------|
|33----------------------| X5


|------------------------|
|------------------------|
|--33--55--3~~-----------|
|33----------------------|

Comentarios 0

Consigo tocarSin embargo, para tocar esta canción. ¡Sé el primero!
    Aún no puedo reproducir
    publicidad
    cerrar