Em Tua Presença

Nívea Soares

 Nívea Soares
Tono: G
		
Intro: G C7M Am7 Em7 C

Dedilhado da Introdução (Violão):


     G
E|---------------------------------------------------------------------------------------------|
B|--------3-------------3------------3---------------3-----------------------------------------|
G|---------------------------------------------------------------------------------------------|
D|-----0----------0---------0-----0-----------0----------0-------------------------------------|
A|---2---------2-----2----2-----2----------2-----2-----2---------------------------------------|
E|-3--------3-----------------3---------3------------------------------------------------------|



          C9
E|---------------------------------------------------------------------------------------------|
B|--------3-------------3------------3---------------3-----------------------------------------|
G|-----0----------0---------0-----0-----------0----------0-------------------------------------|
D|---2---------2---- 2----2-----2----------2-----2-----2---------------------------------------|
A|-3--------3-----------------3---------3------------------------------------------------------|
E|---------------------------------------------------------------------------------------------|



          Am7                          Em
E|---------------------------------------------------------------------------------------------|
B|-------1--------------0-------------0-----------0--------------------------------------------|
G|-----0---------0-----------0------0--------0--------0----------------------------------------|
D|---2--------2-----2------2------2-------2----2----2------------------------------------------|
A|-0-------0--------------------2------2-------------------------------------------------------|              E|---------------------------------------------------------------------------------------------|



          C9
E|---------------------------------------------------------------------------------------------|
B|--------3-------------3------------3---------------3-----------------------------------------|
G|-----0----------0---------0-----0-----------0----------0-------------------------------------|
D|---2---------2---- 2----2-----2----------2-----2-----2---------------------------------------|
A|-3--------3-----------------3---------3------------------------------------------------------|
E|---------------------------------------------------------------------------------------------|


*Continua o dedilhado

            G           C7M
Eu quero estar neste lugar
          Am7                    Em7             C
Onde o pecado é perdoado e as culpas são levadas

            G           C7M
Eu quero estar neste lugar
         Am7                    Em7              C
Onde o amor não se esfrie e o fogo não se apague

          Am7       Em7    G  Dsus
Em Tua presença Senhor Jesus
          Am7       Em7    G
Em Tua presença Senhor Jesus

          C   Am7    Em7           Dsus
Santo Espírito,  eu me rendo ao Teu agir
       C    Am7     Em7          Dsus
Meu anseio é, permanecer em Teu amor

            C       Am7
Em Tua presença Senhor
          Em7  Dsus
Em Tua presença
           C        Am7
Em Tua presença Senhor
          Em7  Dsus
Em Tua presença

Solo: C  Am7  Em7  D9 (2X)


E|-12-12-12-15-15-15-14-14-14--------------------12-12-12-15-15-15-14-14-14--------------------|
B|-----------------------------12-12-12-12-12-12------------------------------10-10-10-10-10-10|
G|---------------------------------------------------------------------------------------------|
D|---------------------------------------------------------------------------------------------|
A|---------------------------------------------------------------------------------------------|
E|---------------------------------------------------------------------------------------------|
                                                                                                  (2x)


E|------------10-10------------10-10-----------------------------------------------------------|
B|-10~12--12---------10~12-12---------10~12--10-----777-888-101010-121212-151515---------------|
G|---------------------------------------------------------------------------------------------|
D|---------------------------------------------------------------------------------------------|
A|---------------------------------------------------------------------------------------------|
E|---------------------------------------------------------------------------------------------|


Na segunda vez fazer o solo com esse final

E|---------------------------------------------------------------------------------------------|
B|----777-888-555-33333------------------------------------------------------------------------|
G|---------------------------------------------------------------------------------------------|
D|---------------------------------------------------------------------------------------------|
A|---------------------------------------------------------------------------------------------|
E|---------------------------------------------------------------------------------------------|

            G           C7M
Eu quero estar neste lugar
         Am7                     Em7              C
Onde o poder não me corrompa,riquezas não me ceguem
            G           C7M
Eu quero estar neste lugar
         Am7                   Em7              C
Onde o mundo não me atraia,paixões não me seduzam

Riff Guitar 1

E|----------------------------------|
B|----13---8---12---7---13---8----12|
G|----------------------------------|
D|--14---9---12---7---14---9----9/12|
A|----------------------------------|
E|----------------------------------|


          Am7       Em7    G  Dsus
Em Tua presença Senhor Jesus
          Am7       Em7    G
Em Tua presença Senhor Jesus


          C   Am7    Em7           Dsus
Santo Espírito,  eu me rendo ao Teu agir
       C    Am7     Em7          Dsus
Meu anseio é, permanecer em Teu amor

            C       Am7
Em Tua presença Senhor
          Em7  Dsus
Em Tua presença
           C        Am7
Em Tua presença Senhor
          Em7  Dsus
Em Tua presença

Re-intro: C Am7  Em7  D9 (3x)


E|-12-12-12-15-15-15-14-14-14-------------------12-12-12-15-15-15-14-14-14------------------|
B|----------------------------12-12-12-12-12-12----------------------------10-10-10-10-10-10|
G|------------------------------------------------------------------------------------------|
D|------------------------------------------------------------------------------------------|
A|------------------------------------------------------------------------------------------|
E|------------------------------------------------------------------------------------------|



E|------------10-10------------10-10-----------------------------------------------------------|
B|-10~12--12---------10~12-12----------10~12--10-----777-888-101010-121212-151515--------------|
G|---------------------------------------------------------------------------------------------|2x
D|---------------------------------------------------------------------------------------------|
A|---------------------------------------------------------------------------------------------|
E|---------------------------------------------------------------------------------------------|



E|---19-------19-------19-------19-------19-20-19-17-19----19-------19-------19-------19-------19-20-19-17-19|
B|17----17-17----17-17----17-17----17-17----------------17----17-17----17-17----17-17----17-17---------------|
G|-----------------------------------------------------------------------------------------------------------|

                                                                      na segunda vez termina com as duas juntas

E|---19-------17-------20-------19-------19-17----14-------14-------14-------14-------14--------15------------|
B|17----17-17----17-17----17-17----15-15-------15----15-15----15-15----15-15----15-15----15-----15------------|
G|------------------------------------------------------------------------------------------------------------|
D|------------------------------------------------------------------------------------------------------------|
A|------------------------------------------------------------------------------------------------------------|
E|------------------------------------------------------------------------------------------------------------|
Texto Columnas
Alterar tom ½ tono ½ tono
sintonización acordes esconder tabs más »
470 exhibiciónes

Comentarios (31)

  • fabio fabio: Publicado en 19/03/2014 22:03

    uhu

  • juninho.gr.39 juninho.gr.39: Publicado en 15/02/2014 14:17

    dedilhado esta errado nao esta igual a do original ^^

  • Wesley Wesley: Publicado en 15/02/2014 10:45

    ja enviei a cifra correta agr e so esperar a analise :D
    cifra de acordo com a video aula da propria nivea soares

  • Larissa Larissa: Publicado en 28/01/2014 03:07

    consegui fazer o solo da guitarra é molinho.

  • pedrao pedrao: Publicado en 25/12/2013 15:29

    Ô neguinha feia pra cantar bem....

    • Larissa Larissa: Publicado en 28/01/2014 03:11

      Cara você acha ela feia, Mais ela é muito usada por Deus. E pra Deus somos todos iguais, se ela é feia você também é.#desculpasófaleiocerto

  • Israel Israel: Publicado en 07/11/2013 20:32

    Para mim tem umas notas erradas. Esse C/G e D/A. Não consegui discernir na música não.

    • Larissa Larissa: Publicado en 28/01/2014 03:09

      verdade!

  • diOu diOu: Publicado en 04/09/2013 23:05

    tem uma parte do dedilhado de introdução que tá errado: no G as cordas usadas são 6, 4, 3 e 2, e não 6, 5, 4 e 2 como foi descrito.

  • Thiago Thiago: Publicado en 07/08/2013 19:03

    alguem sabe o tipo de distorçao que eles usam??

Exhibiendo 10 de 31 comentarios Mostrar más ver todo »
Composición: Sabe quien és el compositor? Envíenos. Contribución: Luckasvt Correcciónes: Jheffter , Guibison e mais 12 »
  1. Sweet Child O' Mine - Guns N' Roses mantiene 2.925 exhibiciones
  2. Wonderwall - Oasis mantiene 2.186 exhibiciones
  3. Hey Jude - The Beatles mantiene 1.958 exhibiciones
  4. Nothing Else Matters - Metallica mantiene 1.804 exhibiciones
  5. Wake Me Up - Avicii mantiene 1.773 exhibiciones
  6. Stairway To Heaven - Led Zeppelin mantiene 1.661 exhibiciones
  7. When I Was Your Man - Bruno Mars mantiene 1.589 exhibiciones
  8. More Than Words - Extreme mantiene 1.450 exhibiciones
  9. Get Lucky - Daft Punk mantiene 1.367 exhibiciones
  10. Don't Let Me Down - The Beatles mantiene 1.360 exhibiciones
  1. The Beatles- mantiene 25.078 exhibiciones
  2. Metallica- mantiene 8.619 exhibiciones
  3. Guns N' Roses- mantiene 7.929 exhibiciones
  4. Nirvana- mantiene 6.626 exhibiciones
  5. Red Hot Chili Peppers- mantiene 5.725 exhibiciones
  6. One Direction- mantiene 5.420 exhibiciones
  7. Bruno Mars- mantiene 4.865 exhibiciones
  8. Coldplay- mantiene 4.745 exhibiciones
  9. Oasis- mantiene 4.554 exhibiciones
  10. Green Day- mantiene 3.603 exhibiciones
Exhibir acordes »

Acordes y tabs

Aprenda

Studio Sol

©1996 - 2014 Cifra Club · el primero, mayor y más accedido del Brasil · 329 mil músicas · 5.9 millones de personas registradas

publicidad
cerrar