Lithium

Nirvana

 Nirvana
Tono: 
		
Riff 1:

E|----------------------------------------------------------------------------------------------------|
B|----------------------------------------------------------------------------------------------------|
G|----------------6------------------------------2-2-2-------------6-----------------------------2-2-2|
D|-2--------6-----6----------6-6-6/7-7-7-7-5-5-5-2-2-2---2-----6---6---------6-6-6/7-7-7-7-5-5-5-2-2-2|
A|-2--------6--4-----7-7-7-7-4-4-4/5-5-5-5-3-3-3-0-0-0---2-----6-4---7-7-7---4-4-4/5-5-5-5-3-3-3-0-0-0|
E|-0--0--4-----------5-5-5-5---------------------------0---0-4-------5-5-5-0--------------------------|


I'm so happy
'Cause today I've found my friends
They're in my head
I'm so ugly but that's okay,
'Cause so are you, we broke our mirrors
Sunday morning is everyday
For all I care and I'm not scared
Light my candles in a daze
'Cause I've found God

Yeah,Yeah (x7)

I'm so lonely, but that's ok
I shaved my head and I'm not sad
And just maybe I'm to blame
For all I've heard, but I'm not sure
I'm so excited
I can't wait to meet you there, but I don't care
I'm so horny
But that's okay, my will is good

Yeah,Yeah (x7)

Riff 2:

E|------------------------|
B|------------------------|
G|------------------------|
D|-------5-5---------5-5--|
A|-7-7---3-3-0-7-7---3-3-0|
E|-5-5-0-------5-5-0------|


I like it - I'm not gonna crack
I miss you - I'm not gonna crack
I love you - I'm not gonna crack
I killed you - I'm not gonna crack (2x)

(riff 1)

I'm so happy
'Cause today I've found my friends
They're in my head
I'm so ugly but that's okay,
'Cause so are you, we broke our mirrors
Sunday morning is everyday
For all I care and I'm not scared
Light my candles in a daze
'Cause I've found God

Yeah,Yeah (x7)

(Riff 2)

I like it - I'm not gonna crack
I miss you - I'm not gonna crack
I love you - I'm not gonna crack
I killed you - I'm not gonna crack (2x)

Comentarios 0

Composición: Álvaro Gomes / Dave Grohl / Keisha Spivey / Kurt Cobain / Valmont
Ese no és el compositor? Avisenos.
Contribución: gabriel_blank
Exhibir acordes »
publicidad
cerrar