Savin' Me

Nickelback

 Nickelback
Tono: E
Sintonización: Eb Ab Db Gb Bb Eb
		
Intro: A E F#m C#m


E|-----------------------------------------|
B|-----------------------------------------|
G|-----------------------------------------|
D|---6-4--------6-4-6---6-4----------2-4-2-|
A|-0----------------------------4-4--------|
E|----------0-0-------2--------------------|



E|-----------------------------------------|
B|-----------------------------------------|
G|-----------------------------------------|
D|---6-4--------6-4-6---6-4----------2-4-2-|
A|-0----------------------------4-4--------|
E|----------0-0-------2--------------------|


A		     E
Prison gates won't open up for me
F#m		   C#m
On these hands and knees I'm crawlin'
A          E  	    	F#m
Oh, I reach for you
	A 	      E
Well I'm terrified of these four walls
      F#m	      C#m
These iron bars can't hold my soul in
A           E    F#m
All I need is you    (Come please I'm callin')
     A         E       F#m
And oh I scream for you   (Hurry I'm fallin')

C#m          E         B          F#m
Show me what its like (to be the last one standing)
    C#m            E         B                  F#m
And teach me wrong from right (and I'll show you what i can be)
A             E           F#m                   C#m      E
Say it for me, say it to me, and I'll leave this life behind me
A             E            F#m
Say it if it's worth saving me

A		      E
Heaven's gates wont't open up for me
F#m		   C#m
With these broken wings I'm fallin'
    A      E 	       F#m
And all I see is you
     A		       E
These city walls ain't got no love for me
F#m		        C#m
I'm on the ledge of the eighteenth story

     A         E       F#m
And oh I scream for you  (Come please I'm callin')

   A       E        F#m
And oh I need for you   (Hurry I'm fallin')

C#m          E         B          F#m
Show me what its like (to be the last one standing)
    C#m            E         B                  F#m
And teach me wrong from right (and I'll show you what i can be)
A             E           F#m                   C#m x x  E x x
Say it for me, say it to me, and I'll leave this life behind me
A             E            F#m
Say it if it's worth saving me


E|--------------------------------|
B|--------------------------------|
G|--1-0--------1-0--------1-0-----|
D|------3-1-3------3-1-3------3-1-|
A|--------------------------------|
E|--------------------------------|



E|-----------------------------|-----------------------------|
B|-----------------------------|-----------------------------|
G|-----------------------------|--1-0------------------------|
D|--3---------1/5----3--/3--1--|------3-1-3--------1/5----3--|
A|-----3-3-3-------------------|-------------3--3------------|
E|-----------------------------|-----------------------------|



E|----------------------------------|--4-3-1---1--4-3-1---1--4-3-1---|
B|----------------------------------|--------4----------4----------4-|
G|----------0-0-0-0-1-1-1-1-3-3-3-3-|--------------------------------|
D|----3-3-3-------------------------|--------------------------------|
A|----------------------------------|--------------------------------|
E|----------------------------------|--------------------------------|



E|--1------------/3--1--/1-----|--1-3-3-3-3-4-4-4-6--4--6--/13--|
B|-----1-1-1--4-------------4--|--------------------------------|
G|-----------------------------|--------------------------------|
D|-----------------------------|--------------------------------|
A|-----------------------------|--------------------------------|
E|-----------------------------|--------------------------------|


    A        E        F#m
And oh I need for you   (Come please I'm callin')
    A         E      F#m
And oh I scream for you   (Hurry I'm fallin')

C#m          E         B          F#m
Show me what its like (to be the last one standing)
    C#m            E         B                  F#m
And teach me wrong from right (and I'll show you what i can be)
A             E           F#m                   C#m      E
Say it for me, say it to me, and I'll leave this life behind me
A             E            F#m
Say it if it's worth saving me  (Hurry I'm fallin')
A             E           F#m                   C#m      E
Say it for me, say it to me, and I'll leave this life behind me
A             E            F#m
Say it if it's worth saving me
Texto Columnas
Alterar tom ½ tono ½ tono
sintonización acordes esconder tabs más »

Comentarios 34

  • sinitroo sinitroo: Publicado en 30/09/2013 21:30

    pra quem quiser tocar na Afinação tradicional : Capo na 1º casa , e em vez de começar a musica no tom "A" começa em "G" , simples !

  • samuel samuel : Publicado en 29/09/2013 21:49

    video aula tbm seria bom

  • samuel samuel : Publicado en 29/09/2013 21:46

    alguem aai manda batida pra mim/ musica foda

  • GIBA GIBA: Publicado en 19/09/2013 17:11


    ta no tom galera , so abaixar as cordas em meio tom

  • Marcelo Marcelo: Publicado en 25/07/2013 09:40

    Legal. Pena que não esta no tom original da Música.

  • willian357753 willian357753: Publicado en 01/07/2013 19:22

    kkkkkkkkkk é mesmo parece death note

  • riick_bvb riick_bvb: Publicado en 15/06/2013 21:14

    kkkkkkkkkkkkkkkk

  • Gabriell Gabriell: Publicado en 30/05/2013 17:04

    meu irmão viu eu tocando esta música e lembrou de barra de cereal doidera

  • essememo essememo: Publicado en 03/03/2013 20:44

    quando vejo esse clip lembro do Death note e_e kkk

  • heroe147 heroe147: Publicado en 08/12/2012 22:56

    muito facil de se tocar.... quaquer duvida pergunte ai.. :/

    • Matheus Matheus : Publicado en 07/05/2013 21:53

      O cara.. me ajuda ai não faço ideia de como tocar

Exhibiendo 11 de 34 comentarios Mostrar más ver todo »
Composición: Chad Kroeger / Nickelback / Reinaldo Maia / Veit Renn
Ese no és el compositor? Avisenos.
Contribución: Diegoliv Correcciónes: pentelholizo , buera e mais 7 »
  1. Sweet Child O' Mine - Guns N' Roses mantiene 2.966 exhibiciones
  2. Wonderwall - Oasis mantiene 2.236 exhibiciones
  3. All Of Me - John Legend mantiene 1.858 exhibiciones
  4. Nothing Else Matters - Metallica mantiene 1.614 exhibiciones
  5. Stairway To Heaven - Led Zeppelin mantiene 1.562 exhibiciones
  6. Hey Jude - The Beatles mantiene 1.476 exhibiciones
  7. When I Was Your Man - Bruno Mars mantiene 1.426 exhibiciones
  8. The Scientist - Coldplay mantiene 1.307 exhibiciones
  9. More Than Words - Extreme mantiene 1.268 exhibiciones
  10. Wake Me Up - Avicii mantiene 1.125 exhibiciones
  1. The Beatles- mantiene 22.745 exhibiciones
  2. Guns N' Roses- mantiene 7.704 exhibiciones
  3. Metallica- mantiene 6.941 exhibiciones
  4. Red Hot Chili Peppers- mantiene 5.256 exhibiciones
  5. Nirvana- mantiene 4.980 exhibiciones
  6. Oasis- mantiene 4.866 exhibiciones
  7. Coldplay- mantiene 4.836 exhibiciones
  8. Bruno Mars- mantiene 4.459 exhibiciones
  9. One Direction- mantiene 3.926 exhibiciones
  10. Green Day- mantiene 3.366 exhibiciones
Exhibir acordes »

Acordes y tabs

Aprenda

Studio Sol

©1996 - 2014 Cifra Club · el primero, mayor y más accedido del Brasil · 337 mil músicas · 6.2 millones de personas registradas

publicidad
cerrar