Senta Com Vontade

New Hit

Sin foto de New Hit
Tono: 
		

E|--------------------------------------
B|--------------------------------------
G|--------------------------------------
D|--5-7-8-7-5-7-8-7-5-7-8-7-5---5-------
A|----------------------------8---------
E|--------------------------------------



E|--------------------------------------
B|--------------------------------------
G|------------------------5-------------
D|--5-7-8-7-5-7-8-7-5-7-8---8-7-5-------
A|--------------------------------------
E|--------------------------------------



B|--------------------------------------
G|--6/7-7---6/7-7---6/7-7---6/7-7-------  4x
D|--------5-------4-------4-------5-----
A|--------------------------------------
E|--------------------------------------



E|--------------------------------------
B|--------------------------------------
G|--------5-----------------------------
D|--5-7-8---8-7-5-----------------------
A|--------------------------------------
E|--------------------------------------



E|--------------------------------------
B|--------------------------------------
G|--------------------------------------
D|--5-7-8-7-5-7-8-7-5-7-8-7-5---5-------
A|----------------------------8---------
E|--------------------------------------



E|--------------------------------------
B|--------------------------------------
G|------------------------5-------------
D|--5-7-8-7-5-7-8-7-5-7-8---8-7-5-------
A|--------------------------------------
E|--------------------------------------



E|--------------------------------------
B|--------------------------------------
G|--------------------------------------
D|--5-7-8-7-5-7-8-7-5-7-8-7-5---5-------
A|----------------------------8---------
E|--------------------------------------



E|--------------------------------------
B|--------------------------------------
G|------------------------5-------------
D|--5-7-8-7-5-7-8-7-5-7-8---8-7-5-------
A|--------------------------------------
E|--------------------------------------



E|--------------------------------------
B|--------------------------------------  2x
G|--5-5-7-7-5-5-7-7-5-5-7-7-5-5-7-7-----
D|--------------------------------------
A|--------------------------------------
E|--------------------------------------



E|--------------------------------------
B|--------------------------------------  2x
G|--4-7-7-4-7-7-5-7-7-5-7-9-7-----------
D|--------------------------------------
A|--------------------------------------
E|--------------------------------------



E|--------------------------------------
B|--------------------------------------
G|--------5-----------------------------
D|--5-7-8---8-7-5-----------------------
A|--------------------------------------
E|--------------------------------------



E|--------------------------------------
B|--------------------------------------
G|--------------------------------------
D|--5-7-8-7-5-7-8-7-5-7-8-7-5---5-------
A|----------------------------8---------
E|--------------------------------------



E|--------------------------------------
B|--------------------------------------
G|------------------------5-------------
D|--5-7-8-7-5-7-8-7-5-7-8---8-7-5-------
A|--------------------------------------
E|--------------------------------------



E|--------------------------------------
B|--------------------------------------
G|--------------------------------------
D|--5-7-8-7-5-7-8-7-5-7-8-7-5---5-------
A|----------------------------8---------
E|--------------------------------------



E|--------------------------------------
B|--------------------------------------
G|------------------------5-------------
D|--5-7-8-7-5-7-8-7-5-7-8---8-7-5-------
A|--------------------------------------
E|--------------------------------------




E|--------------------------------------
B|--------------------------------------
G|--5-5-7-7-5-5-7-7-5-5-7-7-5-5-7-7-----
D|--------------------------------------
A|--------------------------------------
E|--------------------------------------




E|--------------------------------------
B|--------------------------------------
G|--------------------------------------
D|--7-7-7-5-----------------------------
A|--------------------------------------
E|--------------------------------------
33 exhibiciónes

Comentarios 0

Composición: Sabe quien és el compositor? Envíenos. Contribución: wiliam
Consigo tocarSin embargo, para tocar esta canción. ¡Sé el primero!
    Aún no puedo reproducir
    Exhibir acordes »
    publicidad
    cerrar