Unforgettable

Nat King Cole

 Nat King Cole
Tono: C
		
Tuning: Standard
Transcribed by Soch Hean

Intro:

|------------------------------------------------------|
|------------------------------------------------------|
|-5--7-7---9--9------7---9--9--10-10-------9-10-10-12--|
|------------------------------------------------------|
|-3--5-5---7--7------5---7--7---8--8-------7--8--8-10--|
|------------------------------------------------------|



|----------------------------------------|
|----------------------------------------|
|-7---9--9--10----3--5-5--7--------------|
|----------------------------5--7-7--8---|
|-5---7--7---8----1--3-3--5--------------|
|----------------------------3--5-5--6---|



-Verse/Chorus-


Piano Solo: (1:36)

|-------------------------------------------------------------------|
|-------------------------------------------------------------------|
|---------0-1--3-3--5-5----1-3--6-5----------6---8--8--10-10--------|
|-1-2-3-4------3-3--6-6---------------------------------------------|
|--------------------------------------------4---6--6---8--8--------|
|-------------------------------------------------------------------|



|---------------------------------------------------------------------|
|---------------------------9--9---------9-9h10--9--------------------|
|-6---8--11-10----------11-------11--11------------11----6--8-7h8--6--|
|---------------------------------------------------------------------|
|-4---6---9--8--------------------------------------------------------|
|---------------------------------------------------------------------|



|--------------------------------------------------------------------|
|-------6--------------------------------5s7--7----------------------|
|-6--8----8-6-------6s8-8\-3----4--5--5---------4h5---4-3-2----------|
|---------------8-8-----------------------------------------5--3---2-|
|--------------------------------------------------------------------|
|--------------------------------------------------------------------|



-Verse/Chorus-

Comentarios 0

Composición: E. Vedder / Roberto Leal
Ese no és el compositor? Avisenos.
Exhibir acordes »
publicidad
cerrar