Moshimo

Naruto

 Naruto
Tono: D
		

E|-----------------------------------------
B|---5/7-5-5--5-7-5-------8/10--------7----
G|-----------------7-7/9-7-----7-6-7-9-9/11
D|7-7--------7-----------------------------
A|-----------------------------------------
E|-----------------------------------------


          A D A D  D
ritmo
A v D vv  3x D vvv


E|------------------------------------------------------------------------
B|------------------------------------------------------------------------
G|-----------------------7-6-7-4------------------------------------------
D|5/7-7-7-7-7-7-7-7-7-7-7-------4-5--5-5-5-5-5-5-5-5-5-5-5-5/7-5-4-2-4/5-4
A|------------------------------------------------------------------------
E|------------------------------------------------------------------------



E|--------------------------------------------------------------------------
B|--------------------------------------------------------------------------
G|-----------------------6-6-7-4--------------------------------------------
D|5/7-7-7-7-7-7-7-7-7-7-7-------4-4-5--5-5-5-5-5-5-5-5-5-5-5/7-5-2-2/5-4-0-4
A|--------------------------------------------------------------------------
E|--------------------------------------------------------------------------



E|--------------------------7-7-7-5-7-9-10-12------------------------------
B|-------------------------3---------------------------------------7-5-3-2-
G|-4-6-6-7-7/9-6-6/4-2--2-2------------------2/4-2-2--2-2-2-3-3-4-6-------2
D|0------------------------------------------------------------------------
A|-------------------------------------------------------------------------
E|-------------------------------------------------------------------------



E|----------------------------------------------------------------------
B|-----------------------------10--------------------------7-8-10-7-----
G|9/11-9-9--9/11-9-7-9--9-7-6-7--7-6-7--7-7/6-6-6-7-9--7-9---------9-7-9
D|--------9------------9---------------9--------------------------------
A|----------------------------------------------------------------------
E|----------------------------------------------------------------------



E|-----------------------------------------------------------------------------------------------
B|-5/7-5-5--5-7-5-------8/10--------7-----------------------------------------8-7-6-------8-10-7~
G|---------------7-7/9-7-----7-6-7-9-9/11----4-4---------6-7-6-9-6--6-7--7-9-7-----7-7-9-7-------
D|7--------7------------------------------5-5---7-4-5-7-9-----9----------------------------------
A|-----------------------------------------------------------------------------------------------
E|-----------------------------------------------------------------------------------------------
751 exhibiciónes

Comentarios 0

Composición: Sabe quien és el compositor? Envíenos. Contribución: Antonio Correcciónes: Antonio »
Exhibir acordes »
publicidad
cerrar