S/C/A/R/E/C/R/O/W

My Chemical Romance

 My Chemical Romance Compositor: My Chemical Romance
Tono: D
		
Intro:

E|-2--2--2--2-----------
B|-3--3--3--3-----------
G|----------------------   (2x)
D|----------------------
A|----------------------
E|----------------------


( D  Bm  G  Gm )

Refrão:
D                                Bm
Move your body when the sunlight dies
                                                   G    Gm
Everybody hide your body from the S/C/A/R/E/C/R/O/W
           D
Everybody hide

Verso 1:
D                                 F#m
Make a wish when your childhood dies
                                         Bm
Here the knock, knock, knock when she cries
                        A
We're all alone tonight
D                                F#m
Hold you breath when a black bird flies
                                         Bm
Count to seventeen and close your eyes
                            A
I'll keep you safe inside

Ponte:
Bm               F#m
He burns, my skin
                     Bm           G
Nevermind about the shape I'm in
                    A
I'll keep you safe tonight

Yeah, yeah

D                                Bm
Move your body when the sunlight dies
                                                   G    Gm
Everybody hide your body from the S/C/A/R/E/C/R/O/W
           D
Everybody hide

D                                Bm
Move your body when the sunlight dies
                                                   G    Gm
Everybody hide your body from the S/C/A/R/E/C/R/O/W
           D
Everybody hide

Verso 2:
D                                Bm
Blow a kiss at the methane skies
                                          G
See the walls through your playground eyes
              Gm      A
We're all in love tonight, all in love tonight
D                                Bm
Leave a dream with the fallout lies
                              F#m
Watch it grow with a tearstain
         Gm                 A
Just to keep you safe tonight

Bm               F#m
He burns, my skin
                     Bm           G
Nevermind about the shape I'm in
                    A
I'll keep you safe tonight

Yeah, yeah

D                                Bm
Move your body when the sunlight dies
                                                   G    Gm
Everybody hide your body from the S/C/A/R/E/C/R/O/W
           D
Everybody hide

D                                Bm
Move your body when the sunlight dies
                                                   G    Gm
Everybody hide your body from the S/C/A/R/E/C/R/O/W
           D
Everybody hide
 
( D  C  D )
Riff:

E|------------------------------------
B|--7---8-10-----7---8-10-------------
G|----7------------7------------------   (2x)
D|------------------------------------
A|------------------------------------
E|------------------------------------


Riff:

E|--10-9-7-5-7-----------------------------------------------
B|-------------7-----xx-8----10-8-7--------------------------
G|-----------------------------------------------------------
D|-----------------------------------------------------------
A|-----------------------------------------------------------
E|-----------------------------------------------------------


Solo:

E|-------5-7-5-7-5---------5-7-5-7-5--8---/10--8--7--5---3-2-3-/5--------------------------
B|-----------------------------------------------------------------3--5--/7----------------
G|-7--7------------7--7--7-----------------------------------------------------------------
D|-----------------------------------------------------------------------------------------
A|-----------------------------------------------------------------------------------------
E|-----------------------------------------------------------------------------------------



E|-------5-7-5-7-5---------5-7-5-7-5--8---/10--/12--/14~---12--10---/19~-------------------
B|-----------------------------------------------------------------------------------------
G|-7--7------------7--7--7-----------------------------------------------------------------
D|-----------------------------------------------------------------------------------------
A|-----------------------------------------------------------------------------------------
E|-----------------------------------------------------------------------------------------


D                                                Bm
Love, love, love will stop this bomb, bomb
G                            Gm
Love will stop this bomb, bomb

Love will stop this bomb
Run, run bunny run
Run, run bunny run

D                                Bm
Move your body when the sunlight dies
                                                   G    Gm
Everybody hide your body from the S/C/A/R/E/C/R/O/W
           D
Everybody hide

D                                Bm
Move your body when the sunlight dies
                                                   G    Gm
Everybody hide your body from the S/C/A/R/E/C/R/O/W
           D
Everybody hide

D                                Bm
Move your body when the sunlight dies
                                                   G    Gm
Everybody hide your body from the S/C/A/R/E/C/R/O/W
           D
Everybody hide

D                                Bm
Move your body when the sunlight dies
                                                   G    Gm
Everybody hide your body from the S/C/A/R/E/C/R/O/W
           D
Everybody hide
235 exhibiciónes

Comentarios 0

Composición: Chasen Callahan / Dmitrij Savrov / Seosamh MacCathmhaoil
Ese no és el compositor? Avisenos.
Contribución: Matheus Correcciónes: digsx »
Exhibir acordes »
publicidad
cerrar