Wild World

Mr. Big

 Mr. Big
Tono: F
		
{st:Mr. Big / Cat Stevens}

Lalalalala la la la ...
Dm          G7               C
Now that I've lost everything to you
            F                  Bb
You say you wanna start something new
    Gm                     A
It's breaking my heart you're leaving, baby I'm breathing
 Dm        G7             C
If you wanna leave take good care
               F                   Bb
Hope you have a lot of nice things to wear
          Gm                    A7     C
But then a lot of nice things turn bad out there

             B      A#    Am7    Gm7 


Riff1:  e|--8-8-8--6-6-6--5-5-5--3-3-3------|  
        B|--8-8-8--6-6-6--5-5-5--3-3-3------|
        G|--9-9-9--7-7-7--5-5-5--3-3-3------|
        D|----------------------------------|
        A|----------------------------------|
        E|----------------------------------|


F C             Bb
Oh, baby baby it's a wild world


Solo :  e|-------------------------------|
        B|-----6--5----------------------|
        G|-----------7--5--3-2-----------|
        D|-----------------------5--3-2--|
        A|-------------------------------|
        E|-------------------------------|


C              Bb          F
It's hard to get by just upon a smile
        

Solo :  e|-------------------------------|
        B|-------------------------------|
        G|-------------------------------|
        D|--------------3^3--------------|
        A|-------3---5-------5---3-------|
        E|--1^1----------------------1---|



F C             Bb
Oh, baby baby it's a wild world


Solo :  e|-------------------------------|
        B|-----6--5----------------------|
        G|-----------7--5--3-2-----------|
        D|-----------------------5--3-2--|
        A|-------------------------------|
        E|-------------------------------|


C               Bb                F        Gm    A
And I'll always remember you , like a child girl


Riff3:   e|-----------3-----------5--|
         B|--------3-----------5-----|
         G|-----4-----------6--------|
         D|--5-----------7-----------|
         A|--------------------------|
         E|--------------------------|


 Dm                 G7                       C
You know I've seen a lot of what the world can do
         F                  Bb
And it's breaking my heart in two
        Gm                A7      
Cause I never wanna see you sad girl, don't be a bad girl
Dm             G7             C
But if you wanna leave take good care
                F                     Bb
Hope you make a lot of nice friends out there
        Gm                    A7    C
Just remember there's a lot of bad everywhere
         
             B      A#    Am7    Gm7 


Riff1:  e|--8-8-8--6-6-6--5-5-5--3-3-3------|  
        B|--8-8-8--6-6-6--5-5-5--3-3-3------|
        G|--9-9-9--7-7-7--5-5-5--3-3-3------|
        D|----------------------------------|
        A|----------------------------------|
        E|----------------------------------|


F C             Bb
Oh, baby baby it's a wild world


Solo :  e|-------------------------------|
        B|-----6--5----------------------|
        G|-----------7--5--3-2-----------|
        D|-----------------------5--3-2--|
        A|-------------------------------|
        E|-------------------------------|


C              Bb          F
It's hard to get by just upon a smile
        

Solo :  e|-------------------------------|
        B|-------------------------------|
        G|-------------------------------|
        D|--------------3^3--------------|
        A|-------3---5-------5---3-------|
        E|--1^1----------------------1---|



F C             Bb
Oh, baby baby it's a wild world


Solo :  e|-------------------------------|
        B|-----6--5----------------------|
        G|-----------7--5--3-2-----------|
        D|-----------------------5--3-2--|
        A|-------------------------------|
        E|-------------------------------|


C               Bb                F        Gm   A
And I'll always remember you , like a child girl


Riff3:   e|-----------3-----------5--|
         B|--------3-----------5-----|
         G|-----4-----------6--------|
         D|--5-----------7-----------|
         A|--------------------------|
         E|--------------------------|




Solo :  e|-------------------------------------|
        B|--6---5---3---2----------------------|
        G|--7---5---3---2----------------------|
        D|-------------------------------------|
        A|-------------------------------------|
        E|-------------------------------------|


A
Baby I love you
Dm            G              C
But if you wanna leave take good care
               F                     Bb
Hope you make a lot of nice friends out there
        Gm                    A      C
Just remember there's a lot of bad everywhere

{c:CHORUS}
Texto Columnas
Alterar tom ½ tono ½ tono
sintonización acordes esconder tabs más »
500 Internal Server Error

500 Internal Server Error


nginx

Comentarios (1)

  • gsena2005 gsena2005: Publicado en 10/08/2011 21:02

    Muuito boa. Ótima versão da música do Cat Stevens ;)

Composición: Cat Stevens
Ese no és el compositor? Avisenos.
Contribución: Juju Correcciónes: Vinícius Cooper Satriani , Caju e mais 2 »
  1. Sweet Child O' Mine - Guns N' Roses mantiene 2.605 exhibiciones
  2. Wonderwall - Oasis mantiene 1.800 exhibiciones
  3. Hey Jude - The Beatles mantiene 1.777 exhibiciones
  4. Nothing Else Matters - Metallica mantiene 1.611 exhibiciones
  5. Wake Me Up - Avicii mantiene 1.551 exhibiciones
  6. Stairway To Heaven - Led Zeppelin mantiene 1.463 exhibiciones
  7. When I Was Your Man - Bruno Mars mantiene 1.410 exhibiciones
  8. More Than Words - Extreme mantiene 1.284 exhibiciones
  9. Don't Let Me Down - The Beatles mantiene 1.241 exhibiciones
  10. Get Lucky - Daft Punk mantiene 1.203 exhibiciones
  1. The Beatles- mantiene 22.218 exhibiciones
  2. Metallica- mantiene 7.621 exhibiciones
  3. Guns N' Roses- mantiene 6.995 exhibiciones
  4. Nirvana- mantiene 6.064 exhibiciones
  5. Red Hot Chili Peppers- mantiene 5.100 exhibiciones
  6. One Direction- mantiene 4.547 exhibiciones
  7. Bruno Mars- mantiene 4.358 exhibiciones
  8. Coldplay- mantiene 4.096 exhibiciones
  9. Oasis- mantiene 3.918 exhibiciones
  10. Green Day- mantiene 3.026 exhibiciones
Exhibir acordes »

Acordes y tabs

Aprenda

Studio Sol

©1996 - 2014 Cifra Club · el primero, mayor y más accedido del Brasil · 329 mil músicas · 5.9 millones de personas registradas

publicidad
cerrar