Descending Angel

Misfits

 Misfits
Tono: D
		
from famous monsters

i dont know the solo if you know it please email me.
Chris  (DrummerGuyAOF@*)


\\-side whole fret board

intro riff


e----------------------------------------------------
B----------------------------------------------------
G----------------------------------------------------
D----------------------------------------------------
A-9-9999-1212-121212-7-7777\\44444444----------------
E-7-7777-1010-101010-5-5555\\22222222----------------


verse riff


e----------------------------------------------------
B----------------------------------------------------
G----------------------------------------------------
D----------------------------------------------------
A-9-9999-1212-121212-7-7777-44444444-----------------
E-7-7777-1010-101010-5-5555-22222222-----------------


chorus riff 1


e----------------------------------------------------
B----------------------------------------------------
G----------------------------------------------------
D----------------------------------------------------
A-9-9999-1212-121212-7-7777\\44444444----------------
E-7-7777-1010-101010-5-5555\\22222222----------------


chorus riff 2


e----------------------------------------------------
B----------------------------------------------------
G----------------------------------------------------
D----------------------------------------------------
A-9-9999-1212-121212-7-7777-44444444-----------------
E-7-7777-1010-101010-5-5555-22222222-----------------


song layout

intro riff x2
pause
verse riff x4
pause
chorus riff 1
chorus riff 2
pause
chorus riff 1
chorus riff 2
pause
verse riff x4
pause
chorus riff 1
chorus riff 2
pause
chorus riff 1
chorus riff 2
solo (not tabbed)/verse riff x4
pause
chorus riff 1
chorus riff 2
pause
chorus riff 1
chorus riff 2
solo 2 (not tabbed)/verse riff x4

Comentarios 0

Composición: Daniel Rey / J. David / Misfits / Ricardo Confessori / Rogê / Takahiro Watanabe
Ese no és el compositor? Avisenos.
Exhibir acordes »
publicidad
cerrar