Beat It

Michael Jackson

 Michael Jackson
Tono: G
		

E|-----|-----------------|-----------------|-----------------|-------------|
B|-----|-----------------|-----------------|-----------------|-------------|
G|-----|-----------------|-----------------|-----------------|-------------|
D|-----|-------5-2-----4-|---2-0---0-------|-------5-2-----4-|---2-0-------|
A|-----|-----2-----------|-----------------|-----2-----------|-------------|
E|--0--|---3-------------|---------------0-|---3-------------|-------------|



E|-----------------------------------|-----------------------|
B|-----------------------------------|-----------------------|
G|--x---x-x-12--x-x-12---9-------x-x-|-11---x-x-11---7-------|
D|--x---x-x-12--x-x-12---9-------x-x-|-12---x-x-12---7-------|
A|-----------------------------------|-----------------------|
E|-----------------------------------|-----------------------|


Verso:

           E5          D5			E5		D5
E|------------------|-------------|-----------------|-------------|
B|------------------|-------------|-----------------|-------------|
G|--x-9-9---9---x-7-|-7---7-------|-x-9-9---9---x-7-|-7---7-------|
D|--x-9-9---9---x-7-|-7---7-------|-x-9-9---9---x-7-|-7---7-------|
A|--x-7-7---7---x-5-|-5---5-------|-x-7-7---7---x-5-|-5---5-------|
E|------------------|-------------|-----------------|-------------|


          C5	 	   D5			     E5	     D5
E|-----------------|-------------|-----------------|------------------||
B|-----------------|-------------|-----------------|------------------||
G|-x-5-5---5---x-7-|-7---7-------|-x-9-9---9---x-7-|-7---7------------||
D|-x-5-5---5---x-7-|-7---7-------|-x-9-9---9---x-7-|-7---7------------||
A|-x-3-3---3---x-5-|-5---5-------|-x-7-7---7---x-5-|-5---5------------||
E|-----------------|-------------|-----------------|---------15------||


E5                                D5
  They told him don't you ever come around here,
       E5                               D5
don't wanna see your face, you better disappear.
     C5                              D5
The fire's in their eyes and their words are really clear,
    E5             D5
so beat it, just beat it.
E5                             D5
     You better run, you better do what you can,
       E5                              D5
don't wanna see no blood, don't be a macho man.
     C5                      D5
You wanna be tough, better do what you can,
    E5                D5
so beat it, but you wanna be bad.
      E5                 D5
Just beat it, beat it, beat it, beat it,
E5                    D5
no one wants to be defeated.
  E5                     D5
Showin' how funky and strong is your fight,
E5                   D5
it doesn't matter who's wrong or right,
      E5                      D5
just beat it, beat it, just beat it, beat it
      E5                     D5
Just beat it, beat it, just beat it, beat it.

E5                                  D5
   They're out to get you, better leave while you can,
        E5                         D5
don't wanna be a boy, you wanna be a man.
     C5                        D5
You wanna stay alive, better do what you can,
    E5             D5
So beat it, just beat it.
E5                                D5
   You have to show them that you're really not scared,
         E5                                     D5
you're playin' with your life, this ain't no truth or dare
         C5                                          D5
They'll kick you, then they beat you, then they'll tell you it's fair.
      E5               D5
Just beat it, but you wanna be bad.

      E5                 D5
Just beat it, beat it, beat it, beat it,
 E5                    D5
no one wants to be defeated.
  E5                     D5
Showin' how funky and strong is your fight,
 E5                  D5
it doesn't matter who's wrong or right.

Comentarios 0

Composición: Axel Breitung / Michael Jackson / Ronnie Gambirazi
Ese no és el compositor? Avisenos.
Contribución: chupaqedeuva
Exhibir acordes »
publicidad
cerrar