Ele Não Desisti de Você

Marquinhos Gomes

 Marquinhos Gomes
Tono: C
		
Intro 2x: C  G  Am  F

C                      G
 Não importa quem você é
                        Am
 Não importa o que você fez
          F                       C
 Jesus conhece o seu interior também
                      G
 Quantas vezes você caiu
              Am
 Tentando acertar
            F                                 C
 Mais a tristeza e o desespero te fizeram chorar
                          G/B
 Não importa pra onde você foi
                    Am
 Se na escuridão da noite
                    F                       G4 G
 Ele apaga o seu passado e não desiste de você

          C
Ele não desiste de você
         G/B
Ele se importa com você
        Am7
Ele compreende seu caminhar
                  Fm6
Nunca vi amor tão grande assim
Solo:

E|--------12b13~-12------10~--------12b13~-12-------10~-------15-13-----|
B|----13------------13----------13-------------/13--------15------------|
G|----------------------------------------------------------------------|
D|----------------------------------------------------------------------|
A|----------------------------------------------------------------------|
E|----------------------------------------------------------------------|



E|--------12b13~-12------10~----|
B|----13------------13----------|
G|------------------------------|
D|------------------------------| (2x)
A|------------------------------|
E|------------------------------|



E|--------12b13~-12------10--12~|
B|----13------------13----------|
G|------------------------------|
D|------------------------------|
A|------------------------------|
E|------------------------------|



E|--------12b13~-12------10~----|
B|----13------------13----------|
G|------------------------------|
D|------------------------------|
E|------------------------------|



E|------------------------------|
B|------------------------------|
G|------------------------------|
D|------------------------------|
A|----10-8-7----7---------------|
E|-----------10---8-------------|

44 exhibiciónes

Comentarios 2

  • Emilly Emilly: Publicado en 03/08/2014 14:40

    Esse solo aee tá diferente do solo original

  • Helena Helena: Publicado en 29/07/2013 16:37

    Linda canção!

Exhibir acordes »
publicidad
cerrar