Maroon 5

This Love

14.450 reproducciones
Tono: D#
Intro:

  (riff 1)  Cm7  (riff 2)

Fm7(9)  (riff 3)    (riff 4)

Primeira parte:

              (riff 1)    Cm7
   I was so high I did not recognize
      (riff 2)   Fm7(9)
The fire burning in her eyes
           (riff 3)               (riff 4)
The chaos that   controlled my mind
                       (riff 1)  Cm7
   Whispered goodbye as she got    on a plane
      (riff 2)  Fm7(9)
Never to     return again
      (riff 3)       B6
But always in my heart

Refrão:

Cm7       Fm7      Bb7          (riff 5)
    This love has taken its toll on me
  Cm7         Fm7     Bb7         (riff 6)
She said goodbye too many times before
Cm7      Fm7       Bb7            (riff 5)
    Her heart is breaking in front of me
Cm7             F7
    I have no choice
       Ab                 (riff 7)
'Cause I won't say goodbye anymore

  (riff 1)  Cm7  (riff 2)

Fm7(9)  (riff 3)    (riff 8)

Segunda parte:

                            Cm7
I tried my best to feed her appetite
         (riff 2)  Fm7(9)
Keep her coming    every night
           (riff 3)         (riff 4)
So hard to keep her satisfied
                   (riff 1)     Cm7
   Kept playing love like it was just a game
   (riff 2)    Fm7(9)
Pretending to feel the same
         (riff 3)          B6
Then turn around and leave again forever

Refrão:

Cm7       Fm7      Bb7          (riff 5)
    This love has taken its toll on me
  Cm7         Fm7     Bb7         (riff 6)
She said goodbye too many times before
Cm7      Fm7       Bb7            (riff 5)
    Her heart is breaking in front of me
Cm7             F7
    I have no choice
       Ab                 (riff 7)
'Cause I won't say goodbye anymore

  (riff 1)  Cm7  (riff 2)

Fm7(9)  (riff 3)  

Terceira parte:

Fm7
    I'll fix these broken things
Eb7M
     Repair your broken wings
                            Cm7     (riff 9)
   And make sure everything's alright
Fm7
    My pressure on your hips
Eb7M
     Sinking my fingertips

Every inch of you

Cause I know that's what you want me to do

Refrão:

Cm7       Fm7      Bb7          (riff 5)
    This love has taken its toll on me
  Cm7         Fm7     Bb7         (riff 6)
She said goodbye too many times before
Cm7      Fm7       Bb7            (riff 5)
    Her heart is breaking in front of me
Cm7             F7
    I have no choice
       Ab                 (riff 2)  Cm7
'Cause I won't say goodbye any_____more

      Fm7      Bb7          (riff 5)
This love has taken its toll on me
  Cm7         Fm7     Bb7         (riff 6)
She said goodbye too many times before
Cm7      Fm7       Bb7            (riff 5)
    Her heart is breaking in front of me
      Cm7         F7      Ab          (riff 7)
And she said goodbye too many times before

Final:

Cm7  Fm7  Bb7  (riff 5)  Cm7  Fm7  Bb7  (riff 6)

Cm7  Fm7  Bb7  (riff 5)  Cm7  F7  Ab  (riff 7)

Cm7(9)

Riff 1:


E|---x----x-x----------------------------------------|
B|---x----x-x----------------------------------------|
G|---x----x-x----------------------------------------|
D|---x----x-x----------------------------------------|
A|---x----x-x----------------------------------------|
E|-7-x-10-x-x----------------------------------------|

   ↓ ↓  ↑ ↓ ↑

Riff 2:


E|----x---x-x----------------------------------------|
B|----x---x-x----------------------------------------|
G|----x---x-x----------------------------------------|
D|----x---x-x----------------------------------------|
A|-10-x-9-x-x----------------------------------------|
E|----x---x-x----------------------------------------|

   ↓  ↓ ↑ ↓ ↑

Riff 3:


E|---x---x-x-----------------------------------------|
B|---x---x-x-----------------------------------------|
G|---x---x-x-----------------------------------------|
D|---x---x-x-----------------------------------------|
A|-8-x-6-x-x-----------------------------------------|
E|---x---x-x-----------------------------------------|

   ↓ ↓ ↑ ↓ ↑

Riff 4:


E|---x---x-x-----------------------------------------|
B|---x---x-x-----------------------------------------|
G|---x---x-x-----------------------------------------|
D|---x---x-x-----------------------------------------|
A|---x---x-x-----------------------------------------|
E|-4-x-6-x-x-----------------------------------------|

   ↓ ↓ ↑ ↓ ↑

Riff 5:


E|---x---x-x-----------------------------------------|
B|---x---x-x-----------------------------------------|
G|-8-x-7-x-x-----------------------------------------|
D|---x---x-x-----------------------------------------|
A|-6-x-5-x-x-----------------------------------------|
E|---x---x-x-----------------------------------------|

   ↓ ↓ ↑ ↓ ↑

Riff 6:


E|-----x----x----------------------------------------|
B|-----x----x----------------------------------------|
G|-8-8-x-9~-x----------------------------------------|
D|-----x----x----------------------------------------|
A|-6-6-x-7~-x----------------------------------------|
E|-----x----x----------------------------------------|

   ↓ ↑ ↓ ↑  ↑

Riff 7:


E|---x---x-x-----------------------------------------|
B|---x---x-x-----------------------------------------|
G|---x---x-x-----------------------------------------|
D|-5-x-3-x-x-----------------------------------------|
A|---x---x-x-----------------------------------------|
E|-3-x-1-x-x-----------------------------------------|

   ↓ ↓ ↑ ↓ ↑

Riff 8:


E|---x---x-x-----------------------------------------|
B|---x---x-x-----------------------------------------|
G|---x---x-x-----------------------------------------|
D|---x---x-x-----------------------------------------|
A|---x---x-x-----------------------------------------|
E|-4-x-6-x-x-7\0-------------------------------------|

   ↓ ↓ ↑ ↓ ↑ ↓

Riff 9:


E|---x----x-x----------------------------------------|
B|---x----x-x----------------------------------------|
G|---x----x-x----------------------------------------|
D|---x----x-x----------------------------------------|
A|---x----x-x----------------------------------------|
E|-8-x-11-x-x----------------------------------------|

   ↓ ↓  ↑ ↓ ↑
    Composición: Adam Levine / Jesse CarmichaelColaboración y revision:
    • vitor_quentino
    • choquito96
    • y249
    • jhonnykk
    • +6
    0:00 / 0:00

    Capitulos

      4 versões de contrabajoreproduccionescontribuición y correción
      1 versão de bateríareproduccionescontribuición y correción
      3 versões de Guitar Proformatodownloadscontribuición
      3 versões de partiturasformatodownloadscontribuición
      play/pausefechar subir/bajar velocidad
      6ª cuerda E5ª cuerda A4ª cuerda D3ª cuerda G2ª cuerda B1ª cuerda E
        acordes
        publicidad
        cerrar
        ok