Gracias

Marcos Witt

 Marcos Witt
Tono: G
		
Me has tomado en tus brazos,    y me has dado salvación,


	Tab1:	      Em			       D
		e|-0-2-3-------3---2-2---0---------2-0-2-------1---0----------0--|
		B|-------0-------0---------------0-----3---3-----3---3----3---3--|
		G|-----------0-----------------0---------2---2----------2---2----|
		D|---------2-----------------2---------0-------------0----0---0--|
		A|-------2-------------2---2----------------------------0--------|
		E|-----0-------0---0-0---0---------------------------------------|


	       de tu amor has derramado     en mi corazón.


	Tab2:	      Em			       D
		e|-0-2-3-------3---2-2---0---------2-0-2-----2------0--|
		B|-------0-------0---------------0-----3---3---3---3---|
		G|-----------0-----------------0---------2--------2----|
		D|---------2-----------------2---------0---------0-----|
		A|-------2-------------2---2---------------------------|
		E|-----0-------0---0-0---0-----------------------------|


	         No sabré agradecerte 	   lo que has hecho por mí,


	Tab1:	      Em			       D
		e|-0-2-3-------3---2-2---0---------2-0-2-------1---0----------0--|
		B|-------0-------0---------------0-----3---3-----3---3----3---3--|
		G|-----------0-----------------0---------2---2----------2---2----|
		D|---------2-----------------2---------0-------------0----0---0--|
		A|-------2-------------2---2----------------------------0--------|
		E|-----0-------0---0-0---0---------------------------------------|


	        sólo puedo darte ahora 	       mi canción.


	Tab2:	      Em			       D
		e|-0-2-3-------3---2-2---0---------2-0-2-----2------0--|
		B|-------0-------0---------------0-----3---3---3---3---|
		G|-----------0-----------------0---------2--------2----|
		D|---------2-----------------2---------0---------0-----|
		A|-------2-------------2---2---------------------------|
		E|-----0-------0---0-0---0-----------------------------|


Coro:

		   Yo...  gra.............cias, 	   gracias 	   Señor,


	Tab3:		   G		   D		   C		     Em D
		e|-0-2-3-5-7---------7-----5---------5-----8-----------8-----7-5--|
		B|---------8---8---8---8---3---3---3---3-------------8---8---8-7--|
		G|-----------7---7-------0---2---2-----------------9-------9------|
		D|---------5---------------0-------------0------10----------------|
		A|-------------------------------------------10--------------7-5--|
		E|-----------------------------------------8----------------------|


		  gracias    mi Señor 		Jesús.


	Tab4:	   G		   D		   C
		e|-7---------7-----5---------5-----3-------3---------3--|
		B|-8---8---8---8---3---3---3---3---5-----5---5------3---|
		G|---7---7-------0---2---2-------0-----5-------5---5----|
		D|-5---------------0-----------------5------------5-----|
		A|---------------------------------3-------------3------|
		E|------------------------------------------------------|


Estrofa 02:

	       Em		       D
	En la cruz diste tu vida,entregaste todo allí, (Tab1)
	      Em	       	    D
	Vida Eterna regalaste al morir. (Tab2)
	       Em		       	      D
	Por tu Sangre tengo entrada ante el Trono Celestial, (Tab1)
	         Em		         D
	puedo entrar confiadamente ante Ti. (Tab2)

Comentarios 1

Composición: Kiko Loureiro / Marcos Witt / R. Martinez
Ese no és el compositor? Avisenos.
Exhibir acordes »
publicidad
cerrar