Williams Tale

Manowar

 Manowar
Standard Tuning

|--------------------------------------7-------------------------------------|
|--7-7-7--4-6-7-7-7-7-7---4-6-7-7-7-7----7-7-7-7--4-6-7-7-7-7-7-7-7-7-7-7-7--|
|-----------------------5----------------------------------------------------|
|----------------------------------------------------------------------------|

Theme 2x
|----------------------------------------------------------------------------|
|-----------5-9--------------9-7-----------------5-9/-12--9----9-------------|
|-5-5-5-5-5-------5-5-5-5-5------9-5---5-5-5-5-5------------10---10----------|
|----------------------------------------------------------------------------|

2x
|-----------9---9-----------------------9---9--------------------------------|
|-9-9-9-9-9---9---9-----------9-9-9-9-9---9---12-11-12-9---------------------|
|-------------------10-9-10------------------------------12------------------|
|----------------------------------------------------------------------------|

2x
|----------------------------------------------------------------------------|
|-2--------------------------------------------------------------------------|
|-0-2-3--5------5------------------------------------------------------------|
|--------3--7---3-7-5--------------------------------------------------------|

Play Theme

2x
|-9-10-9-7-9-7----7---------9-10-9-7-9-7----7--------------------------------|
|--------------10---10-9-7---------------10---10-9-7-------------------------|
|----------------------------------------------------------------------------|
|----------------------------------------------------------------------------|

|----------------------------------------------------------------------------|
|-9-10-9-7-9-7----7---------9-10-9-7-9-7----7--------------------------------|
|--------------10---10-9-7---------------10---10-9-7-------------------------|
|----------------------------------------------------------------------------|

Play Theme

3x
|-4----------------------4--------------------------------4-------4----------|
|---5--5-5-5-5-5-5-5-5-----5------------5-5-5-5-5-5-5-5-----4-5-7---4-5-7----|
|------3-3-3-3-3-3-3-3-------5-----0-2--3-3-3-3-3-3-3-3----------------------|
|--------------------------------3-------------------------------------------|

|----------------------------------------------------------------------------|
|-8-8-8-8-8-5-5-5-5-9-9-9-9-9-6-6-6-6-6-6-10-10-10-10-10-10-7-7-7-7-7-7-7-7-7|
|-6-6-6-6-6-3-3-3-3-7-7-7-7-7-4-4-4-4-4-4-8--8--8--8--8--8--5-5-5-5-5-5-5-5-5|
|----------------------------------------------------------------------------|

|----------------------------------------------------------------------------|
|-11-11-11-11-11-11-11-8-8-8-8-8-8-8-8-8--12-10-9----10-9-------9------------|
|-9--9--9--9--9--9--9--6-6-6-6-6-6-6-6-6----------12------12-10---12-10-9-12-|
|----------------------------------------------------------------------------|

|-----------------------------------------------------------7-7-7-4-4-4-2-2-2|
|-----------------------------------------------------------0-0-0-0-0-0-0-0-0|
|-10-9----10-9-------9-------------------------------------------------------|
|------12------12-10---12-10-9-12-10-9-10-9-7-9-7-5-7-5-3--------------------|

|-------------------------|The-Last-time-------------------------------------|
|-4-4-4-0-0-0-------------|----------------9-11-12-----------12--/16--12-----|
|-0-0-0-0-0-0-5-5-5-2-2-2-|--------9-10-12--------------9-12-----------------|
|-------------0-0-0-0-0-0-|9-10-12-------------------10----------------------|

|--------------7-------------------------------------------------------------|
|-14(16)-12----7-------------------------------------------------------------|
|--------------5-------------------------------------------------------------|
|----------------------------------------------------------------------------|
24 exhibiciónes

Comentarios 0

Composición: Gene Lees / Gillies / Joey DeMaio
Ese no és el compositor? Avisenos.
Contribución: Taino from Hell
Consigo tocarSin embargo, para tocar esta canción. ¡Sé el primero!
    Aún no puedo reproducir
    publicidad
    cerrar