Siempre

Mago de Oz

 Mago de Oz
Tono: E
		
     C#m        A
Como ayer, te busque
       B           E     B  C#m
en el doble techo de mi corazon
    A                E        B
y halle nostalgia de ti, soledad.

   C#m        A
Comence a llorar
       B        E    B      C#m
estos versos bañados en cancion,
   A               E            B
quiero volver a dormir con tu olor.

 A
Desahucie tus besos
       C#m       B     A
de mi memoria y digo adios
    B
te dejare marchar.

       E       B
Duele tanto vivir
         A        C#m
duele siempre sin ti
     G#m      A
necesito tu olor
     E         B
necesito tu calor.

   E         B
Quiero perfumar
         A          C#m
mi alma con gotas de ti
      G#m        A
y archivar mi dolor
       E               D             E
en el doble fondo que hay en mi colchon.

       E      G#m    A       B       C#m   B     A
e|----------7-7-----12-11-9----|-------7-----7-----|
B|---7-9-10-----9-----------12-|---7-9-----7---7---|
G|-9--------------9------------|-9-------9-------9-|
D|-----------------------------|-------------------|
A|-----------------------------|-------------------|
E|-----------------------------|-------------------|


           B    C#m
e|-12p11-9---------|
B|---------12----9-|
G|------------11---|
D|-----------------|
A|-----------------|
E|-----------------|



      C#m       A
Como ayer me perdi
       B            E   B     C#m
en el laberinto de caminar sin ti
   A                   E         B
grite ¿mi amor donde estas? y llore...

 A
Tu me preguntabas
       C#m    B   A
cuanto te queria yo,
     B
te quiero siempre amor.

       E5     B5
Duele tanto vivir
         A5      C#5
duele siempre sin ti
     G#5     A5
necesito tu olor
     E5       B5
necesito tu calor.

   E5       B5
Quiero perfumar
        A5          C#5
mi alma con gotas de ti
      G#5       A5
y archivar mi dolor
       E5             D5           C#5
en el doble fondo que hay en mi colchon.

         B5            A5
Pinto amaneceres sin saber
             B5                     C#5
cual es el dolor que ahora tiene tu piel
           B5         A5      B             C#5
canto despedidas en papel, desechos de tu querer.
Solo:

                      B5
e|---------------------------|
B|---------------------------|
G|-/18-20-20-18-20b(21)//~~~-|
D|->-------------------<<----|
A|---------------------------|
E|---------------------------|


         A5           B5
e|-----------------------------------------|
B|-/21-21//~~~-/21-21/19-19/17-17/16-16/14-|
G|->-----<<---->-----<-----<-----<-----<---|
D|-----------------------------------------|
A|-----------------------------------------|
E|-----------------------------------------|


     C#5      B5       A5                     B5
e|------------------------------------------------------|
B|-14-16-17----16-17------------------------------------|
G|----------16-------14~-14/16/13----13~-------16~~~***-|
D|------------------------->--<---14-----14-16----------|
A|------------------------------------------------------|
E|------------------------------------------------------|



       E5     B5
Duele tanto vivir
         A5      C#5
duele siempre sin ti
     G#5     A5
necesito tu olor
     E5       B5
necesito tu calor.

   E5       B5
Quiero perfumar
        A5          C#5
mi alma con gotas de ti
      G#5       A5
y archivar mi dolor
       E5             D5
en el doble fondo que hay...

                C#m
Te quiero siempre mi amor
Outro:

   C#m      G#m          A        A        B    C#m
e|-------16-------19--------------------------------|
B|-17-------16-------16----------17-16-----------5--|
G|----------------------18-------------18-16-----6--|
D|----18-------18-------------19-------------16--6--|
A|-16----------------------19-------------14-----4--|
E|----------16----------17-------17-----------------|

  

e|--------------------------------------------------|
B|-------------14-12/14/12-------17-16--------------|
G|------11-13------->--<---------------18-16--------|
D|---14-------------------14~----------------16-18~-|
A|--------------------------------------------------|
E|--------------------------------------------------|

731 exhibiciónes

Comentarios 1

  • Paul Paul: Publicado en 09/11/2014 00:01

    por favor¡¡¡ haz el video tutorial de como tocar esta cancion :) Mago de OZz-Siempre

Composición: C Broadwater / Findon / John Zachary / Jos&eacute; Miranda / K. Lindsey / Natasha Bedingfield
Ese no és el compositor? Avisenos.
Contribución: Wais
Exhibir acordes »
publicidad
cerrar