La Rosa de Los Vientos

Mago de Oz

 Mago de Oz Compositor: Txus di fellato e Mago de Oz
Tono: C
		

E|----10-12--10--------------------10-12--10--------------------
B|-13-----------13-12-10----10--13-----------13-12-10----10-----
G|-----------------------12---------------------------12--------
D|--------------------------------------------------------------
A|--------------------------------------------------------------
E|--------------------------------------------------------------

                                                                  x2

E|--------------------------------------------------------------
B|-10--------10-13-12-10-------10--------10-13-12-10----10------
G|----12-10--------------12-9-----12-10--------------12---------
D|--------------------------------------------------------------
A|--------------------------------------------------------------
E|--------------------------------------------------------------


    C           G
Si siembras una ilusión
      Am            Em
Y la riegas con tu amor
 F        G          Am G
Y el agua de la constancia
     C             G
Brotará en ti una flor
      Am          Em
Y su aroma y su calor
F         G            C       G
Te arroparán cuando algo vaya mal

        C         G
Si siembras un ideal
       Am           Em
En la tierra del quizás
F      G             Am     G
Y lo abonas con la envidia
        C         G
Será difícil arrancar
Am     Em
La maldad
F           G         C G
De tu alma si echó raíz

(Refrão 1)

      C      Em7    Am G
Y que mi luz te acompañe
        C       F      G
Pues la vida es un jardín
       C            G
Donde lo bueno y lo malo
      Am            Em
Se confunden y es humano
     F        G      Am
No siempre saber elegir

      C     Em7    Am G
Y si te sientes perdido
        C      F        G 
Con tus ojos no has de ver
       C            G
Hazlo con los de tu alma
     Am          Em
Y encontrarás la calma
   F             G       C
Tu rosa de los vientos seré


E|-12-10---------------------12-10-----10-12-13-15--
B|-------13--13-12-10--------------13---------------
G|--------------------12-10-------------------------
D|--------------------------------------------------
A|--------------------------------------------------
E|--------------------------------------------------



E|-12-10--------------------------------------------
B|-------13--13-12-10-------------------------------
G|--------------------12-10--------9-12-9-----------
D|---------------------------10-12--------12-10-----
A|--------------------------------------------------
E|--------------------------------------------------


  C           G
Si siembras una amistad
  Am            Em
Con mimo plántala
F        G          Am G
Y abónala con paciencia
  C            G
Pódala con la verdad
  Am           Em
Y transplántala con fe
F     G          C        G  
Pues necesita tiempo y crecer

 C                  G
Si te embriagas de pasión
  Am              Em
Y no enfrías tu corazón
F        G           Am         G                 
Tartamudearán tus sentidos y quizás
C                G     Am       Em
Hablará sólo el calor y no la razón
F             G        C   G
Es sabio contar hasta diez

(Refrão)


E|-----------12-----12--------------------12-17--15-15-15---
B|-10-12-13-----12-----10----10-12-13--13-------------------
G|------------------------12--------------------------------
D|----------------------------------------------------------
A|----------------------------------------------------------
E|----------------------------------------------------------



E|---------------------------------------------------------------------
B|-10-12-13--13-13-13-12-------10--10-10-10----------------------------
G|-----------------------12--9--------------12-9--9-------9-12-9-------
D|--------------------------------------------------10-12--------12-10-
A|---------------------------------------------------------------------
E|---------------------------------------------------------------------



E|--------------------------------------11h12---
B|----------------------------------------------
G|-------9-12-9--------------9-12-9-12----------
D|-10-12--------12-10--10-12--------------------
A|----------------------------------------------
E|----------------------------------------------

Comentarios 0

Consigo tocarSin embargo, para tocar esta canción. ¡Sé el primero!
    Aún no puedo reproducir
    Exhibir acordes »
    publicidad
    cerrar