Sweet Home Alabama

Lynyrd Skynyrd

 Lynyrd Skynyrd
Tono: C
		
Intro: D9 C5 G5
(Guitarra 1)

  D5            C9           G5
E|-----------------------------------------
B|------3-------------3------------3-------
G|--------2-------------0----------0--0----
D|0-x-0-----0-------------0--------0--0----
A|--------------3-x-3----------------------
E|---------------------------3-x-3---------

  P.M .         P.M .        P.M .


E|-----------------------------------------
B|-----------------------------------------
G|------------2p0--------------------------
D|----0-2p0--------------------------------
A|0h2-------2------------------------------
E|-----------------------------------------

  P.M       P.M


  D5             C9          G5
E|-----------------------------------------
B|------3-------------3------------3-------
G|--------2-------------0----------0--0----
D|0-x-0-----0-------------0--------0--0----
A|--------------3-x-3----------------------
E|---------------------------3-x-3---------

  P.M .         P.M .        P.M .


E|-----------------------------------------
B|-----------------------------------------
G|2p0-0-4p0-0-5b7--------------------------
D|-----------------------------------------
A|-----------------------------------------
E|-----------------------------------------



  D5            C9           G5
E|-----------------------------------------
B|-------3-3-----------3-3---------3-------
G|-------2-2-----------0-0---------0--0----
D|0-x-0--0-0-----------0-0---------0--0----
A|--------------3-x-3----------------------
E|---------------------------3-x-3---------

  P.M .         P.M .        P.M .


E|-----------------------------------------
B|-----------------------------------------
G|------------2p0--------------------------
D|----0-2p0--------------------------------
A|0h2-------2------------------------------
E|-----------------------------------------

  P.M       P.M


  D5            C9           G5
E|-----------------------------------------
B|-------3-3-----------3-3---------3-------
G|-------2-2-----------0-0---------0--0----
D|0-x-0--0-0-----------0-0---------0--0----
A|--------------3-x-3----------------------
E|---------------------------3-x-3---------

  P.M .         P.M .        P.M .


E|-----------------------------------------
B|-----------------------------------------
G|------0----------------------------------
D|----0------------------------------------
A|0h2--------------------------------------
E|-----------------------------------------

  P.M

(Guitarra 2)

E|-----------------------------------------
B|-----------------------------------------
G|---------7~---9p7~-----------------------
D|7----------------------------------------
A|--9\7/9----------------------------------
E|-----------------------------------------



  D5           C9
E|--0----------------0---------------------
B|------3--------3-------------------------
G|--------2------------0-------------------
D|0---0------------------------------------
A|-------------3---3-----------------------
E|-----------------------------------------

                   P.M.         .


  G5
E|--3---------------3----------------------
B|------3-----3/5-------5\3----------------
G|--------0-------0---0--------------------
D|-----------------------------------------
A|-----------------------------------------
E|3---3------------------------------------

                   P.M.    .   .


  D5           C9
E|--0----------------0---------------------
B|------3--------3-------------------------
G|--------2------------0-------------------
D|0---0------------------------------------
A|-------------3---3-----------------------
E|-----------------------------------------

                   P.M.         .

  G5
E|--3---------3-------3--------------------
B|------3---------3------------------------
G|--------0-----0---0----------------------
D|-----------------------------------------
A|-----------------------------------------
E|3---3------------------------------------

                   P.M.  .   .


Estrofes:

D5      C9            G5
  Big wheels keep on turning
D5          C9             G5
  Carry me home to see my kin
D5         C9              G5
  Singing songs about the Southland
D5           C9         G5
  I miss Alabamy once again

And I think it's a sin, yes
(Guitarra 1)

  D5            C9           G5
E|-----------------------------------------
B|-------3-3-----------3-3---------3-------
G|-------2-2-----------0-0---------0--0----
D|0-x-0--0-0-----------0-0---------0--0----
A|--------------3-x-3----------------------
E|---------------------------3-x-3---------

  P.M .         P.M .        P.M .


E|-----------------------------------------
B|-----------------------------------------
G|------0-0--------------------------------
D|----0------------------------------------
A|0h2-------0h2----------------------------
E|-----------------------------------------

  P.M       P.M


  D5        C9        G5
E|-----------------------------------------
B|------3-3-------3-3-------3----------3---
G|------2-2-------0-0-------0--0-------0-0-
D|0-x-0-0-0-------0-0-------0--0-------0-0-
A|----------3-x-3--------------------------
E|--------------------3-x-3------3-x-3-----

  P.M .     P.M .     P.M .      P.M .


  D5            C9           G5
E|-----------------------------------------
B|-------3-3-----------3-3---------3-------
G|-------2-2-----------0-0---------0--0----
D|0-x-0--0-0-----------0-0---------0--0----
A|--------------3-x-3----------------------
E|---------------------------3-x-3---------

  P.M .         P.M .        P.M .


E|-----------------------------------------
B|-----------------------------------------
G|------0-0--------------------------------
D|----0------------------------------------
A|0h2-------0h2----------------------------
E|-----------------------------------------

  P.M       P.M


  D5        C9        G5
E|-----------------------------------------
B|------3-3-------3-3-------3----------3---
G|------2-2-------0-0-------0--0-------0-0-
D|0-x-0-0-0-------0-0-------0--0-------0-0-
A|----------3-x-3--------------------------
E|--------------------3-x-3------3-x-3-----

  P.M .     P.M .     P.M .      P.M .


E|-----------------------------------------
B|-----------------------------------------
G|------0----------------------------------
D|----0---2p0------------------------------
A|0h2---------0h2/-------------------------
E|-----------------------------------------

  P.M.


  D5            C9          G5       F/C C
E|-----------------------------------------
B|-------3-3-----------3-3--------3--1---1-
G|-------2-2-----------0-0--------0--2---0-
D|0-x-0--0-0-----------0-0--------0--3---0-
A|--------------3-x-3----------------3---3-
E|--------------------------3-x-3----------

  P.M .         P.M .        P.M .


(Guitarra 2)

  D5           C9
E|--0----------------0---------------------
B|------3--------3-------------------------
G|--------2------------0-------------------
D|0---0------------------------------------
A|-------------3---3-----------------------
E|-----------------------------------------

          P.M.         .


  G5
E|--3---------------3----------------------
B|------3-----3/5-------5\3----------------
G|--------0-------0---0--------------------
D|-----------------------------------------
A|-----------------------------------------
E|3---3------------------------------------

          P.M.    .   .


  D5           C9
E|--0----------------0---------------------
B|------3--------3-------------------------
G|--------2------------0-------------------
D|0---0------------------------------------
A|-------------3---3-----------------------
E|-----------------------------------------

          P.M.         .


  G5
E|--3---------3-------3--------------------
B|------3---------3------------------------
G|--------0-----0---0----------------------
D|-----------------------------------------
A|-----------------------------------------
E|3---3------------------------------------

          P.M.  .   .


  G5
E|--3--------------------------------------
B|------3----------------------------------
G|--------0-------------0------------------
D|-------------------0----2p0--------------
A|--------------0h2-----------0h2/---------
E|3---3------------------------------------

          P.M.  .


  G5           F/C C
E|--3--------------------------------------
B|------3------1---1-----------------------
G|--------0----2---0-----------------------
D|-------------3---2-----------------------
A|-------------3---3-----------------------
E|3---3------------------------------------

          P.M.

Passagem:


E|-----------------------------------------
B|-----------------------------------------
G|------7-7--------5-5----------0-0--------
D|------7-7--------5-5--------0------------
A|7h8h9-----9\-5h7-----7\-0h2--------------
E|----------------------------------3~-----



E|-----------------------------------------
B|----------------------------------12-----
G|------7-7--------5-5----------0-0-12-----
D|------7-7--------5-5--------0-----12-----
A|7h8h9-----9\-5h7-----7\-0h2--------------
E|-----------------------------------------



E|-----------------------------------------
B|-----------------------------------------
G|------7-7--------5-5----------0-0--------
D|------7-7--------5-5--------0------------0
A|7h8h9-----9\-5h7-----7\-0h2----------0h2-
E|----------------------------------3~-----


                                              \0.5/

E|--------------------------------------------------
B|--10b12-12r10p8---5h6h7----------------12---------
G|7-----------------------7-----------------7-5-----
D|--------------------------7~-7\5~--7--------------
A|--------------------------------------------------
E|--------------------------------------------------

                                         H.N..  . .


Estrofes:

D5                     C9          G5
  Well I heard mister Young sing about her
D5                   C9           G5
  Well, I heard old Neil put her down
D5                   C9           G5
  Well, I hope Neil Young will remember
D5            C9                  G5
  A Southern man don't need him around anyhow

Refrão:

D5       C5      G5
  Sweet home Alabama
D5            C5           G5
  Where the skies are so blue
D5       C5      G5
  Sweet home Alabama
D5           C5             G5  F/C C
  Lord, I'm coming home to you
(Guitarra 1)

  D5          C5
E|-----------------------------------------
B|-----------------------------------------
G|-----------------------------------------
D|7-7-9-7--x--5-5-7-5--x-------------------
A|5-5-5-5--x--3-3-3-3--x-------------------
E|-----------------------------------------



  G5
E|-----------------------------------------
B|-----------------------------------------
G|-----------------------------------------
D|----------------0-2p0--------------------
A|5-5-x-x-7--0h2---------3-----------------
E|3-3-x-x-3--------------------------------



  D5          C5
E|-----------------------------------------
B|-----------------------------------------
G|-----------------------------------------
D|7-7-9-7--x--5-5-7-5--x-------------------
A|5-5-5-5--x--3-3-3-3--x-------------------
E|-----------------------------------------



                                 C5
E|-----------------------------------------
B|-----------------------------------------
G|----0-----0-----0-----0-----0------------
D|0h2---0h2---0h2---0h2---0h2----5/--------
A|-------------------------------3/--------
E|-----------------------------------------



  D5          C5
E|-----------------------------------------
B|-----------------------------------------
G|-----------------------------------------
D|7-7-9-7--x--5-5-7-5--x-------------------
A|5-5-5-5--x--3-3-3-3--x-------------------
E|-----------------------------------------



  G5
E|-----------------------------------------
B|-----------------------------------------
G|-----------------------------------------
D|----------------0-2p0--------------------
A|5-5-x-x-7--0h2---------3-----------------
E|3-3-x-x-3--------------------------------



  D5          C5
E|-----------------------------------------
B|-----------------------------------------
G|-----------------------------------------
D|7-7-9-7--x--5-5-7-5--x-------------------
A|5-5-5-5--x--3-3-3-3--x-------------------
E|-----------------------------------------



  G5
E|-----------------------------------------
B|-----------------------------------------
G|-----------------------------------------
D|-----------------------------------------
A|5-5-x-x-7--------------------------------
E|3-3-x-x-3--------------------------------



  G5
E|-----------------------------------------
B|-----------------------------------------
G|-----------------------------------------
D|-----------------------------------------
A|5-5-x-x-7-x-5-5-5-7-5--------------------
E|3-3-x-x-3-x-3-3-3-3-3--------------------



E|-----------------------------------------
B|--8---10---8---8b10r-8b9r--7-------------
G|9---9----9---9---------------7---7~------
D|-------------------------------7---------
A|-----------------------------------------
E|-----------------------------------------


(Guitarra 2)


  D5          C5
E|-----------------------------------------
B|-----------------------------------------
G|-----------------------------------------
D|7-7-9-7--x--5-5-7-5--x-------------------
A|5-5-5-5--x--3-3-3-3--x-------------------
E|-----------------------------------------



  G5                  C5
E|-----------------------------------------
B|-----------------------------------------
G|--------------------5--------------------
D|--------------------5--------------------
A|5-5-x-x-7-x-x--5--x-3--------------------
E|3-3-x-x-3-x-x--3--x----------------------



  D5          C5
E|-----------------------------------------
B|-----------------------------------------
G|-----------------------------------------
D|7-7-9-7--x--5-5-7-5--x-------------------
A|5-5-5-5--x--3-3-3-3--x-------------------
E|-----------------------------------------



  G5             C5
E|-----------------------------------------
B|-----------------------------------------
G|---------------5-----5/------------------
D|---------------5-----5/------------------
A|5-5-x-x-7---x--3--x--3/------------------
E|3-3-x-x-3---x-----x----------------------



  D5          C5
E|-----------------------------------------
B|-----------------------------------------
G|-----------------------------------------
D|7-7-9-7--x--5-5-7-5--x-------------------
A|5-5-5-5--x--3-3-3-3--x-------------------
E|-----------------------------------------



  G5                  C5
E|-----------------------------------------
B|-----------------------------------------
G|--------------------5--------------------
D|--------------------5--------------------
A|5-5-x-x-7-x-x--5--x-3--------------------
E|3-3-x-x-3-x-x--3--x----------------------



  D5          C5
E|-----------------------------------------
B|-----------------------------------------
G|-----------------------------------------
D|7-7-9-7--x--5-5-7-5--x-------------------
A|5-5-5-5--x--3-3-3-3--x-------------------
E|-----------------------------------------



  G5
E|-----------------------------------------
B|-----------------------------------------
G|-----------------------------------------
D|-----------------------------------------
A|5-5-x-x-7--------------------------------
E|3-3-x-x-3--------------------------------


(repetição)

  G5
E|-----------------------------------------
B|-----------------------------------------
G|-----------------------------------------
D|-----------------------------------------
A|5-5-x-x-7-x-5-5-5-7-5--------------------
E|3-3-x-x-3-x-3-3-3-3-3--------------------




Solo 1: D5  C9  G5
E|15b17-15---14--------------------------------------
B|--------------15--15~------------------------------
G|---------------------------------------------------
D|---------------------------------------------------
A|---------------------------------------------------
E|---------------------------------------------------



E|---------------------------------------------------
B|---13-11-------------------------------------------
G|14-------14--12h14----12--12h14----14b16-----------
D|-------------------14-----------14-----------------
A|---------------------------------------------------
E|---------------------------------------------------



E|---------------------------------------------------
B|---------------------------------------------------
G|------12--14-12--14b16-----------12h14----12-------
D|12h14-------------------12-13-14-------14----------
A|---------------------------------------------------
E|---------------------------------------------------


                                             \0.5/

E|---------------------------------------------------
B|---------------------------------------------------
G|14b15r14p12-----------12---------------------------
D|-------------14\12/14----14--------------0---------
A|-----------------------------14/15\14--------------
E|--------------------------------------15-----------



Estrofes:
D5           C9                G5
  In Birmingham they love the governor,
 F/C  C
boo, boo, boo!
D5            C9                G5
  Now we all did what we could do
D5          C9           G5
  Now Watergate does not    bother me
D5           C9                G5
  Does your conscience bother you?

Tell the truth

Refrão:
D5       C5      G5
  Sweet home Alabama
D5            C5           G5
  Where the skies are so blue
D5       C5      G5
  Sweet home Alabama
D5           C5             G5
  Lord, I'm coming home to you

Here I come Alabama

Solo 2 - 4x: D5  C5  G5
                                            \0.5/

E|---------------------------------------------------
B|---------------------------------------------------
G|----0-----0h2--2b3-2b3-2b3-2b4~~~-p0---0-0---------
D|0h2---0h2----------------------------2-------------
A|---------------------------------------------------
E|---------------------------------------------------



E|---------------------------------------------------
B|----8---8-10b13--10b12-8---8-----------------------
G|3/9---9------------------9---9\7-7-7-7-7-7---9-7-7-
D|-------------------------------------------9-------
A|---------------------------------------------------
E|---------------------------------------------------



E|---------------------------------------------------
B|---------------------------------------------------
G|-----12----12-14p14----12-17p12----12-17p12--------
D|9/14----14----------14----------14-----------------
A|---------------------------------------------------
E|---------------------------------------------------



E|---------------------------------------------------
B|---------------------------------------------------
G|---12-16p12----12-16p12----12-16p12----12-16p12----
D|14----------14----------14----------14-------------
A|---------------------------------------------------
E|---------------------------------------------------



E|---------------------------------------------------
B|---------------------------------------------------
G|---12-16p12----12-17p12----------------------------
D|14----------14-------------------------------------
A|---------------------------------------------------
E|---------------------------------------------------



E|---------------------------------------------------
B|---------------------------------------------------
G|---12-14p12----12-14p12----12-17p12----12-17p12----
D|14----------12----------12----------12-------------
A|---------------------------------------------------
E|---------------------------------------------------



E|---------------------------------------------------
B|---------------------------------------------------
G|---12-17p12----12----------------------------------
D|14----------14----14-------------------------------
A|---------------------------------------------------
E|---------------------------------------------------



E|------------------------------------------12-------
B|------------------------------12----12h15----15----
G|------12----------12----12h14----14----------------
D|---------14-12/14----14----------------------------
A|12/14----------------------------------------------
E|---------------------------------------------------



E|12h15--15-15~--15-15-15~--15-15-15~--15-15-15~-----
B|---------------------------------------------------
G|---------------------------------------------------
D|---------------------------------------------------
A|---------------------------------------------------
E|---------------------------------------------------



E|15-15-15~--15-15-15--13b14--12----12---------------
B|-------------------------------15------------------
G|---------------------------------------------------
D|---------------------------------------------------
A|---------------------------------------------------
E|---------------------------------------------------



E|------12-------12-------12-12-------12-12----------
B|15b17----15b17----15b17-------15b17----------------
G|---------------------------------------------------
D|---------------------------------------------------
A|---------------------------------------------------
E|---------------------------------------------------



E|------12-------12----------------------------------
B|---------15b17-------------------------------------
G|14b16----------------------------------------------
D|---------------------------------------------------
A|---------------------------------------------------
E|---------------------------------------------------



E|---------------------------------------------------
B|15p12----12----------------------------------------
G|------15----15--14-12------------------------------
D|----------------------14-12------------------------
A|----------------------------14\12-10-10----12------
E|----------------------------------------12----12---



E|---------------------------------------------------
B|---------------------------------------------------
G|---------------------------------------------------
D|---------------------------------------------------
A|-10h12-12-10----10-10--10h12----10-12/14-----------
E|-------------12--------------12--------------------



E|---------------------------------------------------
B|---------------------------------------------------
G|-------------------12----12h14----12---------------
D|12h14----12--12h14----14-------14------------------
A|------14-------------------------------------------
E|---------------------------------------------------



E|----------------------------------15---------------
B|------15-15----15-----------15h17------------------
G|14/16-------16----16--14/16------------------------
D|---------------------------------------------------
A|---------------------------------------------------
E|---------------------------------------------------



E|17b19-17b19-17b19-19r17p15----15-------------------
B|---------------------------17----17-15~------------
G|---------------------------------------------------
D|---------------------------------------------------
A|---------------------------------------------------
E|---------------------------------------------------



E|---------------------------------------------------
B|12----12-------------------------------------------
G|---15----15-14-12--14----12~-----------------------
D|----------------------14---------------------------
A|---------------------------------------------------
E|---------------------------------------------------



D5    C5      G5
Ahhh, Ahhhhh, ah, Alabama
D5    C5      G5
Ahhh, Ahhhhh, ah, Alabama
D5    C5      G5
Ahhh, Ahhhhh, ah, Alabama
D5    C5      G5
Ahhh, Ahhhhh, ah, Alabama

(Passagem)

Estrofes:
D5             C9                 G5
  Now Muscle Shoals has got the Swampers
D5                   C9                      G5
  And they've been known to pick a song or two
D5           C9         G5
  Lord they get me off so much
D5             C9                    G5
  They pick me up when I'm feeling blue

Now how about you?

Refrão:
D5       C5      G5
  Sweet home Alabama
D5            C5           G5
  Where the skies are so blue
D5       C5      G5
  Sweet home Alabama
D5           C5             G5  F/C C
  Lord, I'm coming home to you
D5       C5      G5
  Sweet home Alabama

Oh sweet home baby
D5            C5           G5
  Where the skies are so blue

And the governor's true
D5       C5      G5
  Sweet home Alabama
      D5            C5             G5
Lordy    Lord, I'm coming home to you

Solo Piano:  D5 C5 G5

Yea, yea Montgomery's got the answer

Comentarios 57

Exhibiendo 10 de 57 comentarios Mostrar más ver todo »
Composición: Ben Robbins / Ed King / Gary Rossington / Hayes / Pio Medrado / Ronnie Van Zant
Ese no és el compositor? Avisenos.
Contribución: felipe Correcciónes: caioghost e mais 1 »
Exhibir acordes »
publicidad
cerrar