Velha Porteira

Lourenço e Lourival

 Lourenço e Lourival
Tono: E
		
(intro) E B7 E E7 A B7 E B7


E|-------------------12---11-11-11-11-11-------------------------11--10--9-9-9-9-9------------------------
B|------------------14---12-12-12-12-12-------------------------12--9---7-7-7-7-7-------------------------
G|-------1------1-----------------------------------------------------------------------1------1---------
D|-2--4---2--4-----------------------------1--2--4---1--2--4-----------------------2--4---2--4---4-2------
A|---------------------------------------------------------------------------------------------------4-2--
E|--------------------------------------------------------------------------------------------------------


---0--0--0---------------------2-2--------2-2---0-0-0------------0----|
---2--2--2---------------------0-0--------0-0---0-0-0------------0----|
---2--2--2---------------------2-2--------2-2---1-1-1------------1----|
---2--2--2---------------------1-1--------1-1---2-2-2---------1--2----|
---0--0- 0----0-----0---0--0h2-x-x----0h2-x-x---2-2-2---2--4-----2----|
---0--0--0-------4-------------x-x--------x-x---x-x-x------------0----|

E
Ao passar pela velha porteira
                                 B7
Senti  minha terra mais perto de mim

De emoção eu estava chorando
                A               B7       E
Porque minha angústia chegava ao fim

Eu confesso que era meu  sonho
        E7                 A
Rever a fazenda onde me criei
                     E                  B7
Não via chegar o momento de abraçar de novo
                                   E
Meu querido povo que um dia eu deixei

E
Que surpresa cruel me aguardava
                               B7
Ao ver a fazenda como transformou

Quase todos dali se mudaram
        A             B7       E
E a velha colônia deserta ficou

Os amigos que ali permanecem
             E7                  A
Transformaram tanto que nem conheci
                 E                   B7
E eles nem me conheceram e nem perceberam
                                 E
Que os anos passaram e eu envelheci

E
E você minha velha porteira
                              B7
Também não está como outrora deixei

Seus morões  pelo tempo ruído
            A     B7         E
No solo caído também encontrei

Já não ouço as suas batidas
           E7                       A
Seu triste rangido lembranças me trás
                  E                 B
Porteira na realidade, você é a saudade
                                     E
Do tempo da infância que  não volta mais
Texto Columnas
Alterar tom ½ tono ½ tono
sintonización acordes esconder tabs más »

Comentarios 0

Composición: Osvaldo Francisco Lemes (Cumpadre Nho Piraci)
Ese no és el compositor? Avisenos.
Contribución: Joao Correcciónes: FÁBIO e mais 1 »
  1. Sweet Child O' Mine - Guns N' Roses mantiene 2.888 exhibiciones
  2. Wonderwall - Oasis mantiene 2.265 exhibiciones
  3. All Of Me - John Legend mantiene 2.173 exhibiciones
  4. Nothing Else Matters - Metallica mantiene 1.779 exhibiciones
  5. Stairway To Heaven - Led Zeppelin mantiene 1.601 exhibiciones
  6. I'm Yours - Jason Mraz mantiene 1.492 exhibiciones
  7. When I Was Your Man - Bruno Mars mantiene 1.413 exhibiciones
  8. Hey Jude - The Beatles mantiene 1.390 exhibiciones
  9. The Scientist - Coldplay mantiene 1.378 exhibiciones
  10. More Than Words - Extreme mantiene 1.342 exhibiciones
  1. The Beatles- mantiene 22.649 exhibiciones
  2. Guns N' Roses- mantiene 7.547 exhibiciones
  3. Metallica- mantiene 7.202 exhibiciones
  4. Coldplay- mantiene 5.196 exhibiciones
  5. Nirvana- mantiene 5.149 exhibiciones
  6. Red Hot Chili Peppers- mantiene 4.916 exhibiciones
  7. Oasis- mantiene 4.875 exhibiciones
  8. Bruno Mars- mantiene 4.342 exhibiciones
  9. One Direction- mantiene 4.165 exhibiciones
  10. Green Day- mantiene 3.996 exhibiciones
Exhibir acordes »

Acordes y tabs

Aprenda

Studio Sol

©1996 - 2014 Cifra Club · el primero, mayor y más accedido del Brasil · 339 mil músicas · 6.3 millones de personas registradas

publicidad
cerrar