Além do que se vê

Los Hermanos

 Los Hermanos
Tono: C
		
* Lembre-se que Los Hermanos toca com uma afinação meio tom
  abaixo. Portanto, a música original é tocada em Ab, não em A.

* Usa-se na música, os acordes A e G, só que nessas posições:
  

    A que emenda   G .... O Dm, se faz em pestana na quinta casa
e|--8--------------7---
b|--10-------------8---
g|--9--------------9---
D|---------------------
A|---------------------
E|---------------------


Usa-se os acordes abaixo ou a transcrição abaixo:

E|-----------------------------------
B|-----------------------------------
G|-------------------------------1---
D|-------------------------------2---
A|-0-0--2---4-3-2--4-3-2---0-0---2---  (2x)
E|-------------------------------0---


A7+ Bm7
Mo--ça 

C#m7 Cm7 Bm7 C#m7  Cm7  E      A7+
olha     só  o   que eu te escrevi

E         A7+  Bm7 
é preciso for--ça 

C#m7 Cm7  Bm7   C#m7 Cm7 F#7
pra  son--har e per--ce|--ber

        Bm7    E   Bm7      Dm D4 Dm
que a estrada vai além do que se vê

Essa passagem do Dm D4 Dm é feita da seguinte forma:


e|----1-----3-----1h3p0--------|		
B|----3---------------------3--|                         	
G|----2------------------------|											
D|----0------------------------|
A|-----------------------------|
E|-----------------------------|                         


Sequência: Am, G (faz-se os respectivos) Dm, G (pestana na terceira casa), E7(b9) E7 Dm

Sei que a tua solidão me dói
e que é difícil ser feliz
mas do que somos todos nós
você supõe o céu
Sei que o vento que entortou a flor
passou também por nosso lar
e foi você quem desviou
com golpes de pincel


E|-----------------------------------
B|-----------------------------------
G|-------------------------------1---
D|-------------------------------2---
A|-0-0--2---4-3-2--4-3-2---0-0---2--- 
E|-------------------------------0---


Eu sei, é o amor que ninguém mais vê
Deixa eu ver a moça
Toma o teu, voa mais
que o bloco da família vai atrás

Sequência: Am, G (faz-se os respectivos) Dm, G (pestana na terceira casa), E7(b9) E7 Dm
 
Põe mais um na mesa de jantar
por que hoje eu vou pra aí te ver
e tira o som dessa TV
pra gente conversar
Diz pro bamba usar o violão
pede pro Tico me esperar
e avisa que eu só vou chegar
no último vagão


E|-----------------------------------
B|-----------------------------------
G|-------------------------------1---
D|-------------------------------2---
A|-0-0--2---4-3-2--4-3-2---0-0---2---  (2x) - Camelo
E|-------------------------------0---


É bom te ver sorrir
Deixa vir à moça
que eu também vou atrás
e a banda diz: assim é q se faz!

Am - F5 ... Faz-se isso na virada final da bateria do Barba.

Sequência: Am, G (faz-se os respectivos) Dm, G (pestana na terceira casa), E7(b9) Dm

Comentarios 11

  • Karol Karol: Publicado en 09/12/2014 23:03

    Porra, vídeo aula gente

  • Daiane Daiane: Publicado en 29/04/2014 16:50

    porra eu tomei uma coça pra aprender a tocar essa. Taquipariu, mas consegui o/

  • dihginho dihginho: Publicado en 09/03/2014 14:57

    videoaula !!!

  • geovani geovani: Publicado en 10/02/2014 15:46

    Seria bom uma vídeo aula da versão original dessa música, não a encontro em sua versão original em lugar algum.

  • Jéssica Jéssica: Publicado en 02/01/2014 18:25

    vídeo aula, por favor

  • afonsodelph afonsodelph: Publicado en 21/12/2013 22:24

    video aula seria bom!

  • Wagner Wagner: Publicado en 10/11/2013 22:38

    Eu consegui \o/

  • gabriel.ximenes.7 gabriel.ximenes.7: Publicado en 09/10/2013 21:48

    Video aula por favor

  • Parent Parent: Publicado en 30/09/2012 13:56

    Faz uma video aula dessa musica!

  • FelipeKF3 FelipeKF3: Publicado en 01/11/2011 13:47

    Vai colocar esses acordes no lugar certo andes de enviar =)

Exhibiendo 10 de 11 comentarios Mostrar más ver todo »
Composición: Dann Gallucci / Irwan Simanjuntak / Nigel Hendroff
Ese no és el compositor? Avisenos.
Contribución: aham Correcciónes: hdiogenes e mais 2 »
Exhibir acordes »
publicidad
cerrar