Quando Acordei

Lorena Chaves

 Lorena Chaves
Tono: G(acordes na forma do tom C)
Cejilla en la 7ª casa		

 Intro:      C      F         C          F     G
         E|-----------------------------------------|
         B|-12--12-13-10-8--------------------------|
         G|----------------9-7----------------------| 
         D|---------------------10-9--7-9--10-9-7---|
         A|---------------------------------------10|
         E|-----------------------------------------|



             C      F         C          F     G
         E|-----------------------------------------|
         B|-12--12-13-10-8--------------------------|
         G|----------------9-7----------------------| 
         D|---------------------10-9--7-9-10-12-----|
         A|-----------------------------------------|
         E|-----------------------------------------|


   C
A brisa acaricia o meu rosto
               F
Enquanto da varanda eu vejo as roupas penduradas no varal
      An7
Sem grande esforço, a memória
  G
Traz lembranças de um dia bom
C                                   F
Na caneca de cafe, o gosto das historias da infância
      Am7                           G            G  F# F
O sorriso daquela criança foi de encontro ao meu

          G            Am7         Em7
  E me perdi em todos os detalhes quando acordei
 F         G              C
  Pra reparar o que era bom
 F           G           Em7
  Só fez sentido quando entendi
  Am7          F           G             C
  Tudo que estava ali, não estava por estar

Am              F             E             F G
Aumente o som, quero ouvir a melodia que me faz

Am              F             E
Viver em paz, está chegando a hora
        Dm7      Em          G
E a tua voz ecoará pra todo sempre
            C F
Em meu coração
            C F
Em meu coração
    G       C
Em meu coração
6 exhibiciónes

Comentarios 0

Composición: Lorena Chaves
Ese no és el compositor? Avisenos.
Contribución: FELIPE Correcciónes: belisao e mais 1 »
Consigo tocarSin embargo, para tocar esta canción. ¡Sé el primero!
    Aún no puedo reproducir
    Exhibir acordes »
    publicidad
    cerrar