Everybody's Changing

Lily Allen

 Lily Allen
Tono: C
		
(intro) C C7+


E|---8--------8----7--------7----|--12-------12----7-------7-------|
B|-------------------------------|---------------------------------|
g|*-----9-------9-----9-------9--|------9-------9-----9------9--*--|
d|*-------10------------10-------|--------9-------------9-------*--|
A|-------------------------------|---------------------------------|
E|-------------------------------|---------------------------------|


(piano)

E|----------------------12-12-12---------|
B|-13-13-13-12-12-12--12--------12-12-12-|
G|---------------------------------------| (2x)
D|---------------------------------------|
A|---------------------------------------|
E|---------------------------------------|



E|----------------------13-13-13---------|
B|-13-13-13-12-12-12--12--------12-12-12-|
G|---------------------------------------|(1x)
D|---------------------------------------|
A|---------------------------------------|
E|---------------------------------------|



E|----------------------12-12-12-----------|
B|-13-13-13-12-12-12--12--------12-12-12-13|
G|-----------------------------------------| (2x)
D|-----------------------------------------|
A|-----------------------------------------|
E|-----------------------------------------|


C                        F
You say you wander your own land
     Dm
But when I think about it
   G                    C   C7+   C   C7+
I don't see how you can

        C
You're aching, you're breaking
    F
And I can see the pain in your eyes
      Dm
Says everybody's changing
    G               C   C7+    C   C7+
And I don't know why

(refrão)
F           G
So little time
C                       F
Try to understand that I'm
Dm                             G
Trying to make a move just to stay in the game
   Em7                     A
I try to stay awake and remember my name
      Dm                        G                C   C7+  C  C7+
But everybody's changing and I don't feel the same

C
You're gone from here
Soon you will disappear
   F
Fading into beautiful light
  Dm
'cos everybody's changing
G                    C   C7+   C   C7+
And I don't feel right

(refrão)
F           G
So little time
C                       F
Try to understand that I'm
Dm                             G
Trying to make a move just to stay in the game
   Em7                     A
I try to stay awake and remember my name
      Dm                        G                C   C7+  C  C7+
But everybody's changing and I don't feel the same

(intro)

(refrão 2x)
1.281 exhibiciónes

Comentarios 0

Composición: Tom Chaplin / Wilsinho Soares
Ese no és el compositor? Avisenos.
Contribución: alezileal
Exhibir acordes »
publicidad
cerrar