Vodka

Korpiklaani

 Korpiklaani
Tono: D
		

E|-------------------------|
B|-------------------------|
G|-------------------------|
D|-------------33----55----|
A|-00----33----11----33----|
D|-00----33----------------|



E|-------------------------|
B|-------------------------|
G|-------------------------|
D|-------------33-3-355-/--|
A|-00-0-033-3-311-1-133-/--|
D|-00-0-033-3-3------------|



E|-----------------------------------|
B|-----------------------------------|
G|-----------------------------------|
D|-77777777555555553333333355555555--|
A|-55555555333333331111111133333333--| (2x)
D|-----------------------------------|



E|--------------------------|
B|--------------------------|
G|--------------------------|
D|-------------33-3-355-5-5-|
A|-00-0-033-3-311-1-133-3-3-|
D|-00-0-033-3-3-------------|



E|-------------------------|
B|-------------------------|
G|-------------------------|
D|-------------33-3-355-/--|
A|-00-0-033-3-311-1-133-/--|
D|-00-0-033-3-3------------|

                      Yeah,Vodka!

E|-----------------------------------|
B|-----------------------------------|
G|-----------------------------------|
D|-77777777555555553333333355555555--|
A|-55555555333333331111111133333333--| (4x)
D|-----------------------------------|



E|---------------------------------------------------------------------|
B|---------------------------------------------------------------------|
G|---------------------------------------------------------------------|
D|----------------------------------32---------------------------------|
A|---2s3--3s2--2s3--3s2--2s3--3s2---103---2s3--3s2--2s3--3s2--2s3--3s2-|
D|-002s3003s2002s3003s2002s3003s2000--3-002s3003s2002s3003s2002s3003s2-|

  **   **   **   **   **   **   ***    **   **   **   **   **   **


E|----------------------------------------|
B|----------------------------------------| 
G|----------------------------------------|
D|----------------------------------------|
A|---2s3--3s2--2s3--3s2--2s3--3s2---2357--|
D|-002s3003s2002s3003s2002s3003s20002357-

  **   **   **   **   **   **   ***


E|--------------------------|
B|--------------------------|
G|--------------------------|
D|-------------33-3-355-5-5-|
A|-00-0-033-3-311-1-133-3-3-|
D|-00-0-033-3-3-------------|



E|-------------------------|
B|-------------------------|
G|-------------------------|
D|-------------33-3-355-/--|
A|-00-0-033-3-311-1-133-/--|
D|-00-0-033-3-3------------|

                      Yeah,Vodka!

E|-----------------------------------|
B|-----------------------------------|
G|-----------------------------------|
D|-77777777555555553333333355555555--|
A|-55555555333333331111111133333333--|  (3x)
D|-----------------------------------|



E|-----------------------------------|
B|-----------------------------------|
G|-----------------------------------|
D|-77777777555555553333333355555/----|
A|-55555555333333331111111133333/----|
D|-----------------------------------|


(riff violino)

E|----------------------------------|
B|----------------------------------|
G|----------------------------------|
D|----------------------------------|
A|-55555555333333331111111133333333-|
D|----------------------------------|

  ********************************


E|----------------------------------|
B|----------------------------------|
G|----------------------------------|
D|----------------------------------|
A|-5555555533333333111111113-/------|
D|----------------------------------|

  *************************


E|----------------------------------------------------|
B|----------------------------------------------------|
G|----------------------------------------------------|
D|--7-7-7-7-5-5-5-5-3-3-3-3-5-5-5-5-7-7-7-7-5-5-5-5-/-|
A|--5-5-5-5-3-3-3-3-1-1-1-1-3-3-3-3-5-5-5-5-3-3-3-3-/-|
D|----------------------------------------------------|



E|---------------------------|
B|---------------------------|
G|---------------------------|
D|-77----55----33----55------|
A|-555555333333111111333333--|  (2x)
D|---------------------------|

    ****  ****  ****  ****


E|--------------------------|
B|--------------------------|
G|--------------------------|
D|-------------33-3-355-5-5-|
A|-00-0-033-3-311-1-133-3-3-|
D|-00-0-033-3-3-------------|



E|-------------------------|
B|-------------------------|
G|-------------------------|
D|-------------33-3-355-/--|
A|-00-0-033-3-311-1-133-/--|
D|-00-0-033-3-3------------|



E|---------------------------------------------|
B|---------------------------------------------|
G|---------------------------------------------|
D|-77777777555555553333333355555555------7--7--|
A|-55555555333333331111111133333333--X2--5--5--|
D|---------------------------------------0--0--|

                                         Vodka!
270 exhibiciónes

Comentarios 0

Exhibir acordes »
publicidad
cerrar