Falling Away From Me

Korn

 Korn
Tono: B
		

Tuning : Low to High (A D G F A D)
All notes and chords sound a whole step lower than written 
(key of A minor)
 
 T   - tremelo picking
(_)  - Half notes (held for 2 beats each)
(_). - Dotted half note (held for 3 beats)
 /   - bend
 
Intro gtr. 1 (clean)                                                        

D ||----15---14-----------14---|----15---14-----------14--------|
A ||-17-----------15-----------|-17-----------15-----------14---|
F ||------------------16-------|------------------16------------|
G ||---------------------------|--------------------------------|
D ||---------------------------|--------------------------------|
A ||---------------------------|--------------------------------|

 
gtr. 1 & 2 (dist.) (play 8x)

D ||-------------------------|
A ||-------------------------|
F ||-9--------9--9-----------|
G ||-8--------8--8-----------|
D ||----7--7--------7--7--7--|
A ||-6--0--0--6--6--0--0--0--|

 
1st Verse (clean)

D ||----15---14-----------14---|----15---14-----------14--------|
A ||-17-----------15-----------|-17-----------15-----------14---|
F ||------------------16-------|------------------16------------|
G ||---------------------------|--------------------------------|
D ||---------------------------|--------------------------------|
A ||---------------------------|--------------------------------|

    1. Hey    I'm feeling tired...
    2. Day    is hear fading...
 
(dist.) (play 4x)

D ||-------------------------|
A ||-------------------------|
F ||-9--------9--9-----------|
G ||-8--------8--8-----------|
D ||----7--7--------7--7--7--|
A ||-6--0--0--6--6--0--0--0--|

 
2nd Verse (repeat 1st verse)
 
1st Chorus (dist.)

D ||---------------|----------------|---------------|----------------|
A ||---------------|----------------|---------------|----------------|
F ||---------------|----------------|---------------|----------------|
G ||-(2)----(9)----|-(5).-----3--3--|-(2)----(9)----|-(5).-----8--8--|
D ||-(2)----(9)----|-(5).-----3--3--|-(2)----(9)----|-(5).-----8--8--|
A ||-(0)----(7)----|-(3).-----1--1--|-(0)----(7)----|-(3).-----6--6--|

           Beating me down...
 

D ||---------------|----------------|---------------|-----------------|
A ||---------------|----------------|---------------|-----------------|
F ||---------------|----------------|---------------|-----------------|
G ||-(2)----(9)----|-(5).-----3--3--|-(2)----(9)----|-5--5----8-8-8-8-|
D ||-(2)----(9)----|-(5).-----3--3--|-(2)----(9)----|-5--5----8-8-8-8-|
A ||-(0)----(7)----|-(3).-----1--1--|-(0)----(7)----|-3--3----6-6-6-6-|

 
 

D ||----15---14-----------14---|----15---14-----------14--------|
A ||-17-----------15-----------|-17-----------15-----------14---|
F ||------------------16-------|------------------16------------|
G ||---------------------------|--------------------------------|
D ||---------------------------|--------------------------------|
A ||---------------------------|--------------------------------|

    (Falling away from me) It's spinning round & round
    (Falling away from me) It's spinning round & round
 

D ||----15---14-----------14---|----15---14-----------14--------|
A ||-17-----------15-----------|-17-----------15-----------14---|
F ||------------------16-------|------------------16------------|
G ||---------------------------|--------------------------------|
D ||---------------------------|--------------------------------|
A ||---------------------------|--------------------------------|

    (Falling away from me) It's lost and can't be found
    (Falling away from me)       Slow it down
 
2nd Chorus (repeat 1st chorus)

D ||---------------|----------------|---------------|----------------|
A ||---------------|----------------|---------------|----------------|
F ||---------------|----------------|---------------|----------------|
G ||-(2)----(9)----|-(5).-----3--3--|-(2)----(9)----|-(5).-----8--8--|
D ||-(2)----(9)----|-(5).-----3--3--|-(2)----(9)----|-(5).-----8--8--|
A ||-(0)----(7)----|-(3).-----1--1--|-(0)----(7)----|-(3).-----6--6--|

                                                     Down  into  the
repeat 4x

D ||---------------|
A ||---------------|
F ||---------------|
G ||-(2)-----------|
D ||-(2)-----------|
A ||-(0)-----------|

     ground
 
Bridge

D ||-2----2----|-2--------|-2----2---2--|-2--------|-2----0----|-0--------|
A ||-0----2----|-3--------|-5----3---2--|-3--------|-0----2----|-0--------|
F ||-4----4----|-2--------|-1----2---2--|-0--------|-4----3----|-2--------|
G ||-----------|----------|-------------|----------|-----------|----------|
D ||-----------|----------|-------------|----------|-----------|----------|
A ||-----------|----------|-------------|----------|-----------|----------|

    Pressing     me...
 

D ||-0------0-|----------| 
A ||-0------0-|-0--------|
F ||-0------0-|-8--------|
G ||----------|-9--------|
D ||----------|----------|
A ||----------|----------|

 
repeat 4x (clean)

D ||----15---14-----------14---|----15---14-----------14--------|
A ||-17-----------15-----------|-17-----------15-----------14---|
F ||------------------16-------|------------------16------------|
G ||---------------------------|--------------------------------|
D ||---------------------------|--------------------------------|
A ||---------------------------|--------------------------------|

                          Well it's falling away from me
                          It's falling away from me
                          Well it's falling away from me  BITE!!!
repeat 8x

D ||-------------------------|
A ||-------------------------|
F ||-9--------9--9-----------|
G ||-8--------8--8-----------|
D ||----7--7--------7--7--7--|
A ||-6--0--0--6--6--0--0--0--|

 
3rd Chorus (dist.)
 
Outro

D ||---------------|----------------|---------------|----------------|
A ||---------------|----------------|---------------|----------------|
F ||---------------|----------------|---------------|----------------|
G ||-(2)----(9)----|-(5).-----3--3--|-(2)----(9)----|-(5).-----8--8--|
D ||-(2)----(9)----|-(5).-----3--3--|-(2)----(9)----|-(5).-----8--8--|
A ||-(0)----(7)----|-(3).-----1--1--|-(0)----(7)----|-(3).-----6--6--|

            Beating me down into the ground...
     (Falling away from me)   
 

D ||---------------|----------------|---------------|-------------|
A ||---------------|----------------|---------------|-------------|
F ||---------------|----------------|---------------|-------------|
G ||-(2)----(9)----|-(5).-----3--3--|-(2)----(9)----|-5------8--8-|
D ||-(2)----(9)----|-(5).-----3--3--|-(2)----(9)----|-5------8--8-|
A ||-(0)----(7)----|-(3).-----1--1--|-(0)----(7)----|-3------6--6-|

                                                   ...into   the
                repeat 5x

D ||-------------|------------------|-------------|
A ||-0--------0--|-0-------------0--|-0--------0--|
F ||-3/--(3)--3--|-3/--(3)--(3)--3--|-3/--(3)--3--|
G ||-------------|------------------|-------------|
D ||-------------|------------------|-------------|
A ||-------------|------------------|-------------|

    ground



-------------------------------------------------------------- 




This is not the version that wil be on the album. This was played 
at Woodstock '99.


 Intro-Munky


d ||----15-14-------14------15-14--------14--------|
A ||--17------15----------17--------15--------14---|
F ||--------------16---------------------16--------|
C ||-----------------------------------------------|
G ||-----------------------------------------------|
D ||-----------------------------------------------|
A ||-----------------------------------------------|


Riff 1-Munky and Head Together


d ||----------------------------|
A ||----------------------------|
F ||----------------------------|
C ||--14----------------14------|
G ||--14----------------14------|
D ||--13----------------13------|
A ||-----0----0-00--0-----0--0--|


Riff 2A-Munky

Munky uses a volume pedal right here. He plays the note while Head is playing 
his thing but press the volume pedal around the time when Head hits the 19th 
fret on Riff 2B. I can't really describe it any differently.  


d ||-----------------------------------------|
A ||--11--------(11)-----------------(11)\---|
F ||-----------------------------------------|
C ||-----------------------------------------|
G ||-----------------------------------------|
D ||-----------------------------------------|
A ||-----------------------------------------|


Riff 2B-Head


d ||-------------20-19---------------------20----19---|
A ||------17------------------------17----------------|
F ||--16----16-------------------16----16-------------|
C ||--------------------------------------------------|
D ||--------------------------------------------------|
A ||--------------------------------------------------|


Riff 3A-Munky

*= bend and keep bent until @
   
      *            @                    *              @          

d ||-0----0-0-0-----0-0-0-0--0-----0--0--0--0--0-----0---0----|
A ||-0----0-0-0-----0-0-0-0--0-----0--0--0--0--0-----0---0----|
F ||-3----3-3-3-----3-3-3-3--3-----3--3--3--3--3-----3---3----|
C ||----------------------------------------------------------|
D ||----------------------------------------------------------|
A ||----------------------------------------------------------|


Riff 3B-Head


d ||-------------------------|
A ||-------------------------|
C ||-------4-------------5---|
G ||-2-----2------5------5---|
D ||-2-----2------5------3---|
A ||-0------------3----------|


Riff 3B (substitute)-Head


d ||-----------------|
A ||-----------------|
C ||--------4--------|
G ||-2-----2-----5---|
D ||-2-----2-----5---|
A ||-0------------3--|





-------------------------------------------------------------- 




Tuned Down One Half Whole Step (DGCFAd)

(Intro and Verse)

(Guitar 1)

d ||-----12--15--14----------14-||-----12--15--14----------14----|
A ||-----------------15--12-----||-----------------15--12------14|
F ||----------------------------||-------------------------------|
C ||----------------------------||-------------------------------|
G ||----------------------------||-------------------------------|
D ||----------------------------||-------------------------------|

(with Vibrating Effect)

(Guitars 1 and 2)

d ||----------------------------|
A ||----------------------------|
F ||----------------------------|
C ||--10-----10--10--10---------|
G ||---8--9---8---8---8--9--9---|
D ||------7--------------7--7---|

(with Heavy Distortion)


(Chorus)

(Guitar 1)

d ||----------------------------||----------------------------|
A ||----------------------------||----------------------------|
F ||--4--6--7-------------------||--4--6----------------------|
C ||--4--6--7-------------------||--4--6--7-------------------|
G ||--2--4--5-------------------||--2--4--7-------------------|
D ||----------------------------||--------5-------------------|


(Guitar 2)

d ||----------------------------|
A ||-3/4/3/4 ~ ~ ~ ~--3---------|
F ||----------------------------|
C ||----------------------------|
G ||----------------------------|
D ||----------------------------|


(Note: /=Hammer On   ~=Let Ring)



-------------------------------------------------------------- 




This is the cool part thats played though out most of the song


E ||----------------------------------------------------|
A ||----------------------------------------------------|
D ||----------------------------------------------------|
G ||----------------------------------------------------|
B ||------------13-10---------------------13-10-----12--|
E ||-10-13-12--------12-----10-13-12---------12---------|


Then it just alternates between an A chord and a D chord, its easy enough to 
figure out yourself, if u can play the guitar and like KoRn that is. But 
only play the top 3 strings and put mad ditorsion on it or it sounds like 
dave matthews band, he sucks

Comentarios 1

Composición: Angel Francisco Reyero Pontes / Bill Batstone / Cazals / Lorene Mann / Maxim Nucci / Natasha Shneider / Paco de Lucía / Terry / Vráta Slapák
Ese no és el compositor? Avisenos.
Exhibir acordes »
publicidad
cerrar