Rompendo em fé

Kleber Lucas

 Kleber Lucas
Tono: A
		

  Intro: D  A  D  F#m  Bm E4  E  A  A4/D  A  D/E
E|----------------------------------------------------------------------------------|
B|----------------------------------14v----12-14-15-14-15-14-12-12/14p12-10---------|
G|--/14-13-11-13-14-----14-13-11-13-14----14--------------------------------14-14/9-|
D|-----------------14v--------------------------------------------------------------|
A|----------------------------------------------------------------------------------|
E|----------------------------------------------------------------------------------|


A cada dia vou viver rompendo em fé...

E|----------------5/7p5--|
B|--7-5-------5----------|
G|------7-6-7------------|
D|-----------------------|
A|-----------------------|
E|-----------------------|


     A9			    D
Cada vez que a minha fé é provada
      E4
Tu me dás  a chance
 E		A9         E/G#
 de crescer um pouco mais
     F#m
As montanhas e vales,
  C#m		        Bm
Desertos e mares que atravesso
    Bm/A     E4       E
Me levam prá perto de ti
	A9
Minhas provações não são
	   Bm
Maiores do que o meu Deus
       E4        E	    A9
E não vão me impedir de caminhar
    Bm	       E       C#7      F#m
Se diante de mim não se abrir o mar
         Bm         E
Deus vai me fazer andar
 	     A9
Por sobre as águas.

D	    A9   C#m
Rompendo em fé,
      D	         E         A
Minha vida se revestirá do teu poder.
D	     A9    G
Rompendo em fé____é
         D	   E	     F#m
Com ousadia vou mover no sobrenatural
      D        A9
Vou lutar e vencer,
       D       F#m
Vou plantar e colher.
       Bm        E		 A
A cada dia vou viver rompendo em fé.
A9    (1ª  vez)  A4    A     D

(repete tudo)

       Bm	        E	             A
A cada dia vou viver rompendo em fé,
       Bm	        E
A cada dia vou viver
(pausa)   A9
Rom____pen____do em    fé.

Comentarios 0

Composición: Ana & Edson Feitosa
Ese no és el compositor? Avisenos.
Contribución: Josué Correcciónes: Lucas , Muringa e mais 4 »
Exhibir acordes »
publicidad
cerrar