Tono: G#
		
(intro 4x)

E|----------------------------------|
B|-----9p(8)--8---------------------|
G|-----8------8---------------------|
D|-----8------8---------------------|
A|----------------------------------|
E|----------------------------------|


(2x)

E|----------------------------------------------------------------------------|
B|-------------------8-8---8-8------------------------------------------------|
G|-------------------8-8---8-8------------------------------------------------|
D|-------------------8-8---8-8------------------1-1------------1--------------|
A|--1--1-4-----------------------1--1-4-------------4-4--3-3-1----------------|
E|----------1--1-4---------------------1--1-4---------------------4-4-3-3-1---|


        Bbm
Let it never be said
     Fm
That romance is dead
              Cm
Cause there's so little else
     Eb
Occupying my head
         Bbm
There is nothing I need
           Fm
Except the function to breath
        Cm
But I'm not really fussed
        Eb
Doesn't matter to me...

                         Bbm  Fm  Eb
Ruby  Ruby  Ruby  Rubey!    ( ahh ahhh ...)
                          Bbm  Fm  Eb
Do ya  do ya  do ya  do ya!   ( ahh ahhh ...)


E|----------------------------------------------------------------------|
B|----------------------------------------------------------------------|
G|----------------------------------------------------------8-----------|
D|---------------1-1----------------------------------------------------|
A|---1--1-4-------------4-4--3-3-1--------1--1-4------------6-----------|
E|--------1--1-4-------------------------------1--1-4-------------------|


Know what you're doing doing to me!?  ( ahh ahhh ...)
Ruby  Ruby  Ruby  Ruby!  ( ahh ahhh ...)

       Bbm
Due to lack of interest
      Fm
Tomorrow s cancelled
         Cm
Let the clocks be reset
        Eb
And the pendulums held
      Bbm
Cause nothing at all
            Fm
Except the space in-between
        Cm
Finding out what you're called
       Eb
And repeating your name...

                         Bbm Fm Eb
Ruby  Ruby  Ruby  Rubey!    ( ahh ahhh ...)
                          Bbm Fm Eb
Do ya  do ya  do ya  do ya!   ( ahh ahhh ...)


E|----------------------------------------------------------------------------|
B|----------------------------------------------------------------------------|
G|----------------------------------------------------------8----9----10------|
D|---------------1-1----------------------------------------------------------|
A|---1--1-4-------------4-4--3-3-1--------1--1-4------------6----7----8-------|
E|--------1--1-4-------------------------------1--1-4-------------------------|


Know what you're doing doing to me!?  ( ahh ahhh ...)
Ruby  Ruby  Ruby  Ruby!  ( ahh ahhh ...)

Fm
Could it be  could it be
            C#
That you're joking with me
        Bbm
And you don't really see
         Eb E
You and me...

Fm
Could it be  could it be
            C#
That you're joking with me
        Bbm
And you don't really see
         Eb E   Fm
You and me...

(solo 2x)

E|-----------------------------------------------------------------------------|
B|-----------------------------------------------------------------------------|
G|--5-3-5--5-3-5------3-3h-5-3-----------3-3h-5-3---------3-3h-5-3-4-5---------|
D|------------------6----------6--3----6-----------6-3--6----------------------|
A|-----------------------------------------------------------------------------|
E|-----------------------------------------------------------------------------|


                         Bbm Fm Eb
Ruby  Ruby  Ruby  Rubey!    ( ahh ahhh ...)
                          Bbm Fm Eb
Do ya  do ya  do ya  do ya!   ( ahh ahhh ...)


E|----------------------------------------------------------------------------|-------------|
B|----------------------------------------------------------------------------|-------------|
G|----------------------------------------------------------------------------|-8--9--10----|
D|---------------1-1-------------------------------------1-1------------------|-------------|
A|---1--1-4-------------4-4--3-3-1--------1--1-4--------------4-4--3-3-1------|-6--7--8-----|
E|--------1--1-4-------------------------------1--1-4-------------------------|-------------|


Know what you're doing doing to me!?  ( ahh ahhh ...)
Ruby  Ruby  Ruby  Rubey!  ( ahh ahhh ...)
1.265 exhibiciónes

Comentarios 1

Composición: Kaiser Chiefs
Ese no és el compositor? Avisenos.
Contribución: victorsmarotta Correcciónes: champoski e mais 2 »
Exhibir acordes »
publicidad
cerrar