Logo Eu

Jorge e Mateus

 Jorge e Mateus
Tono: E
		
Intro: F#m A E (2x)


E|-------------------------------------------------------------------4-----------|
B|-5/7---5/7---9/5~---7b8p5---5-----5---------5/7---5/7/5/7---7/9/5----7b8h5---5-|
G|--------------------------6-------4h6p4------------------------------------6---|
D|-------------------------------------------------------------------------------|
A|-------------------------------------------------------------------------------|
E|-------------------------------------------------------------------------------|


   Riff 1

E|-----------------------|
B|------5/2--------------|
G|-----------------------|
D|--4h6------------------|
A|-----------------------|
E|-----------------------|



   Riff 2

E|-----------------------|
B|-----------------------|
G|-----9----8----6-------|
D|-7/9----9----7---------|
A|-----------------------|
E|-----------------------|


   Riff 3

E|--7--4---------------------------------4----4--------------|
B|--------7--5----------------------5------7-----7--5---5h7--|
G|-------------6--4--6p4------------------------------6------|
D|-----------------------6--4--4h6---------------------------|
A|-----------------------------------------------------------|
E|-----------------------------------------------------------|



(Riff 1)

Primeira Parte:
E
Eu te vi e já te quis
A
Me vi tão feliz
C#m                      A
Um amor que para mim era sonho


Segunda Parte:
E			A
Surpreendente provar do que eu só ouvi falar
C#m         B  	      A
E você resolveu me mostrar     (Riff 2)


Refrão:
        F#m
Logo eu que nem pensava
       A	       E
Eu não imaginava te merecer
    B
E agora sou o dono desse amor
F#m		      A
Eu nem quero saber por quê
		E
Eu só preciso viver
   B		       F#m    A    E  B
O resto dessa vida com você eie eie

Intro


Primeira Parte:
E
Eu te vi e já te quis
A
Me vi tão feliz
C#m                      A
Um amor que para mim era sonho


Segunda Parte:
E			A
Surpreendente provar do que eu só ouvi falar
C#m         B  	      A
E você resolveu me mostrar     (Riff 2)


Refrão:
        F#m
Logo eu que nem pensava
       A	       E
Eu não imaginava te merecer
    B
E agora sou o dono desse amor
F#m		      A
Eu nem quero saber por quê
		E
Eu só preciso viver
   B		       F#m
O resto dessa vida com você
F#m
Eu que nem pensava
A
Não imaginava
E
Te merecer
B
E agora sou o dono desse amor
F#m7                  A
Eu nem quero saber por que
                E
Eu só preciso viver
B                       F#m
O resto dessa vida com você
      A         E  (Riff 3)
Com você com você
 B                 F#m
O resto dessa vida com você  (Riff 2)
Texto Columnas
Alterar tom ½ tono ½ tono
sintonización acordes esconder tabs más »

Comentarios 117

  • thiago.lokito thiago.lokito: Publicado en 01/07/2014 15:09

    toca pra caraioo kkkkkkkkk mtooo ziika



  • Leonardo.MateusR00 Leonardo.MateusR00: Publicado en 24/06/2014 19:23

    no tom de D# fica mais facil pra qm ta começando

  • Douglas Douglas: Publicado en 21/06/2014 15:58

    Assistam meu cover no You Tube porfavor gente?! ---> Jorge & Mateus - Seu Olhar (Douglas Silva)

  • william william: Publicado en 18/06/2014 21:31

    Intro dificil

  • gabriel.ribeiro097 gabriel.ribeiro097: Publicado en 18/06/2014 11:56

    Solo:
    E|-5/7~---5/7~---9--5----------------
    |

  • : Publicado en 28/05/2014 17:26

    O tom é enrosca na minha birosca

  • João João: Publicado en 23/05/2014 15:33

    miga me empurrou na frente de um carro.Envir essa mensagem a 10 musicas, ou as 2:00 horas d

  • : Publicado en 19/05/2014 18:19

    Arrocha o cú que estou entrando!!! Música de viadinho e de mulherzinha que está com o cú dando bote!

    • gabrielsotimao gabrielsotimao: Publicado en 14/06/2014 03:21

      e comentar isso te faz muito mais macho né? fala tanto que nem mostra a cara, esse é o pior tipo de pessoa...

    • Gustavo Gustavo: Publicado en 16/07/2014 01:33

      deve ta bebado so pode nem sabe na onde esta deve estar achando que esta no face

Exhibiendo 10 de 117 comentarios Mostrar más ver todo »
Composición: Samuel Deolli - Filipe
Ese no és el compositor? Avisenos.
Contribución: Jeaan Correcciónes: Márcio e mais 2 »
  1. Sweet Child O' Mine - Guns N' Roses mantiene 2.683 exhibiciones
  2. Wonderwall - Oasis mantiene 2.004 exhibiciones
  3. Nothing Else Matters - Metallica mantiene 1.576 exhibiciones
  4. When I Was Your Man - Bruno Mars mantiene 1.571 exhibiciones
  5. Stairway To Heaven - Led Zeppelin mantiene 1.508 exhibiciones
  6. All Of Me - John Legend mantiene 1.404 exhibiciones
  7. Hey Jude - The Beatles mantiene 1.380 exhibiciones
  8. The Scientist - Coldplay mantiene 1.361 exhibiciones
  9. More Than Words - Extreme mantiene 1.288 exhibiciones
  10. Wake Me Up - Avicii mantiene 1.156 exhibiciones
  1. The Beatles- mantiene 20.843 exhibiciones
  2. Guns N' Roses- mantiene 6.855 exhibiciones
  3. Metallica- mantiene 6.700 exhibiciones
  4. Coldplay- mantiene 5.395 exhibiciones
  5. One Direction- mantiene 5.206 exhibiciones
  6. Nirvana- mantiene 4.907 exhibiciones
  7. Red Hot Chili Peppers- mantiene 4.871 exhibiciones
  8. Bruno Mars- mantiene 4.644 exhibiciones
  9. Oasis- mantiene 4.394 exhibiciones
  10. Green Day- mantiene 3.439 exhibiciones
Exhibir acordes »

Acordes y tabs

Aprenda

Studio Sol

©1996 - 2014 Cifra Club · el primero, mayor y más accedido del Brasil · 335 mil músicas · 6.1 millones de personas registradas

publicidad
cerrar