Fly With Me

Jonas Brothers

 Jonas Brothers
Tono: G
		
Intro:

E|---------------------------
B|---------------------------
G|-5--5--7--7--9--9--7--7----
D|--------------------------- (2x)
A|---------------------------
E|---------------------------


( C  G  F  Am  G )
 
     C
If time were still
     G                      F
The sun would never never find us
           Am   G
We could light up
      C
The sky tonight
    G                           F
If I could see the world through your eyes
           Am   G
Leave it all behind

Refrão:
     C
It's you and me forever
     G
It's you and me right now
            F
It'll be alright
      Am  G
Be alright
C
Chasing stars and losing shadows
G                               F
Peter Pan and Wendy turned out fine
             Am  G        C
So won't you fly with me

        G
Oh Yeah
                     F             Am  G
Gotta fly with me now

C                G
Now the past can come alive
                F
And give it meaning
       Am G
And a reason
F             G
To give all I can
      F           G
To believe once again

Refrão:
     C
It's you and me forever
     G
It's you and me right now
            F
It'll be alright
      Am  G
Be alright
C
Chasing stars and losing shadows
G                               F
Peter Pan and Wendy turned out fine
             Am  G        C
So won't you fly with me

C                       G
Maybe you were just afraid
                          F
Knowing you were miles away
                           Am      G
From the place where you needed to be
               Am       G
And that's right here with me

     C
It's you and me forever
     G
It's you and me right now
            F      Am  G
It'll be alright
C
Chasing stars and losing shadows
G                               F
Peter Pan and Wendy turned out fine
             Am  G        C
So won't you fly with me
Solo:

E|-----------------------------------------------------------------|
B|------------------7---10------------------------7--12------------|
G|-------7----7--9----------9b11r9~-----7---7--9--------9b11r9p7---|
D|----/9---9------------------------/9----9------------------------|
A|-7------------------------------------------------------------9-|
E|-----------------------------------------------------------------|



E|----------------------------------------12b14r12~-|
B|--------------------------------------------------|
G|--------------------------7----9----11------------|
D|---7h9p7----------/7--9---------------------------|
A|----------9--7b9----------------------------------|
E|--------------------------------------------------|


      D
It's you and me forever
      A
It's you and me right now
           G
It'll be alright
     Bm  A
Be alright
D
Chasing stars and losing shadows
A                              G
Peter Pan and Wendy turned out fine
             Bm   A
So won't you fly

Bm   A
Fly
G A   D
Fly with me
3.055 exhibiciónes

Comentarios 1

  • brenoasd brenoasd: Publicado en 30/07/2011 21:21

    facil d+

Composición: Chiara Canzian / Cliff Richard / Fred / Jakob Nebel / Jerome Foster / Joe Kent / Luiz Ayr / Owl City
Ese no és el compositor? Avisenos.
Contribución: LiiieJerryJonas Correcciónes: bomera , Pedro Redó e mais 2 »
Exhibir acordes »
publicidad
cerrar