Ring Of Fire

Johnny Cash

 Johnny Cash
Tono: G
		
Intro:


e|--------------------------------------------------------|
B|--------------------------------------------------------|
G|-------------2---0--------------------------------------|
D|-------0-000---3----2-222-3-0-2-------------------------|
A|-2-3-4--------------------------------------------------|
E|--------------------------------------------------------|


G         C        G
Love is a burning thing


E|---------------|
B|---------------|
G|---------------|
D|--0-000-2---0--|
A|----------3----|
E|---------------|

                
               D      G
And it makes a fiery ring


E|---------------|
B|---------------|
G|---------------|
D|---------------|
A|--2-222-3-0-2--|
E|---------------|


          C    G
Bound by wild desire
               D       G
I fell into a Ring of Fire

D              C               G
I fell into a burning Ring of Fire
        D
I went down, down, down
         C           G
And the flames went higher
And it burns, burns, burns
    C        G
The Ring of Fire
    D        G
The Ring of Fire

D              C               G
I fell into a burning Ring of Fire
        D
I went down, down, down
        C           G
And the flames went higher
And it burns, burns, burns
    C       G
The Ring of Fire
    D       G
The Ring of Fire


e|--------------------------------------------------------|
B|--------------------------------------------------------|
G|-------------2---0--------------------------------------|
D|-------0-000---3----2-222-3-0-2-------------------------|
A|-2-3-4--------------------------------------------------|
E|--------------------------------------------------------|


G             C       G
The taste of love is sweet


E|---------------|
B|---------------|
G|---------------|
D|--0-000-2---0--|
A|----------3----|
E|---------------|


                 D     G
When hearts like ours meet


E|---------------|
B|---------------|
G|---------------|
D|---------------|
A|--2-222-3-0-2--|
E|---------------|


               C      G
I fell for you like a child
             D         G
Ohh, but the fire went wild

D              C               G
I fell into a burning Ring of Fire
        D
I went down, down, down
        C           G
And the flames went higher
And it burns, burns, burns
    C       G
The Ring of Fire
    D       G
The Ring of fire

D              C               G
I fell into a burning Ring of Fire
        D
I went down, down, down
        C           G
And the flames went higher
And it burns, burns, burns
    C       G
The Ring of Fire
    C       G
The Ring of Fire

And It Burns, Burns, Burns
    C       G
The Ring of Fire
    C       G
The Ring of Fire
    C       G
The Ring of Fire
    C       G
The Ring of Fire
1.449 exhibiciónes

Comentarios 8

  • rafael.augusto.5855594 rafael.augusto.5855594: Publicado en 09/05/2013 19:55

    cara e muito facil

  • giselysoares giselysoares: Publicado en 30/04/2013 09:59

    Sou péssima para pegar ritmo, qual é a batida?

    • Thales Thales: Publicado en 04/12/2014 08:55

      Eu uso o tradicional dele.
      1- Desce polegar, 2- desce indicador, 3- sobe indicador, 4- desce polegar, 5- desce indicador.
      Em alguns momento

  • Vitin Vitin: Publicado en 16/09/2012 16:07

    No caso ele canta 1/2 acima né em G# MAIOR.

  • nejijuan nejijuan: Publicado en 20/03/2012 18:43

    Quem compôs foi a Carter, e ele só tocou com ela.

  • _tanatos _tanatos: Publicado en 25/12/2011 23:21

    Acho que foi a June quem compôs... é tão incrível ouví-la tocada e cantada por Johnny Cash! Sonoridade nota mil.

  • leo2505 leo2505: Publicado en 18/11/2011 19:27

    essa aí eh na minha opinião a música com o instrumental mais foda do Johnny Cash, aqls trompetes ao msm tempo q me fazem rir me impressio

  • jpnb jpnb: Publicado en 18/08/2011 03:35

    show é muito bom relembrar johnny cash

Composición: J. Van Heusen / Jimmy Lewis / June Carter Cash / The Roots
Ese no és el compositor? Avisenos.
Contribución: felipeprates
Exhibir acordes »
publicidad
cerrar