Prelude In Cm

Johann Sebastian Bach

 Johann Sebastian Bach
Tono: C
		
Please note: This is not my work but a work by Luis Moreno. All credit is due to him.
This is a powertab piece that I simply exported. 



                                  PRELUDE IN CM
                           As recorded by Luis  Moreno

Music by J.S. Bach
Arranged by Luis  Moreno
Transcribed by Luis  Moreno

Please note: This is not my work but a work by Luis Moreno. All credit is due to him.
This is a powertab piece that I simply exported. 

          Cm                  Fm/C                  B°7                 Ab/C
      x 3 5 5 4 3          x 3 3 1 1 1          x 2 3 1 3 x          8 x 6 8 9 x

         D7/C                 Gm/Bb                C7/Bb                Fm/Ab
      8 x 7 7 7 x          6 x 5 7 8 x          6 x 5 5 5 x          4 x 3 5 6 x

        Bb7/Ab                Eb/G                 Bb/D                  Eb
      4 x 3 3 3 x          3 x 1 3 4 x        10 x 8 10 11 x      11 13 13 12 11 11

         F7/Eb                 D°7                 Fm6/C               CmVIII
    11 x 10 10 10 x       10 x 9 10 9 x         8 x 6 7 6 x         8 10 10 8 8 8

          F7                  F#°7                 Cm/G                 F#°7I
     x 8 10 8 10 8        x 9 10 8 10 x         3 3 5 5 4 3          2 x 1 2 1 x

         G#/G                   G                Fm/CVIII          CmVIII(type 2)
      3 6 6 5 4 x          3 2 0 0 3 3         x x 10 10 9 x        x x 10 8 8 x

          Fm                   C°7
      1 3 3 1 1 1          x 3 4 2 4 x

Gtr I (E A D G B E) - 'Gtr. 1'
Gtr II (E A D G B E) - 'Gtr. 2'

 Verse
  Q=120
  Cm                                Fm/C
 4/4
  Gtr I
  S S S S S S S S S S S S S S S S   S S S S S S S S S S S S S S S S
|-8---------------8---------------|-4---------------4---------------|
|---------------------------------|---6-5-6---6-5-6---6-5-6---6-5-6-|
|---8-7-8-5-8-7-8---8-7-8-5-8-7-8-|---------5---------------5-------|
|---------------------------------|---------------------------------|
|---------------------------------|---------------------------------|
|---------------------------------|---------------------------------|
|
| Gtr II
| W                                 W
|-3-------------------------------|-1-------------------------------|
|-4-------------------------------|-1-------------------------------|
|-5-------------------------------|-1-------------------------------|
|-5-------------------------------|-3-------------------------------|
|-3-------------------------------|-3-------------------------------|
|---------------------------------|---------------------------------|


  B°7
  S  S S  S S  S S  S S  S S  S S  S S  S
|-7-------------------7-------------------|
|-----------------------------------------|
|---10-8-10-7-10-8-10---10-8-10-7-10-8-10-|
|-----------------------------------------|
|-----------------------------------------|
|-----------------------------------------|
|
| W
|-----------------------------------------|
|-3---------------------------------------|
|-1---------------------------------------|
|-3---------------------------------------|
|-2---------------------------------------|
|-----------------------------------------|


  Cm
  S  S  S  S S  S  S  S S  S  S  S S  S  S  S
|-8---------------------8----------------------|
|----------------------------------------------|
|---12-10-12-8-12-10-12---12-10-12-8-12-10-12--|
|----------------------------------------------|
|----------------------------------------------|
|----------------------------------------------|
|
| W
|-3--------------------------------------------|
|-4--------------------------------------------|
|-5--------------------------------------------|
|-5--------------------------------------------|
|-3--------------------------------------------|
|----------------------------------------------|


  Ab/C
   S S S S S S S S  S S S S S S S S
|-11---------------11---------------|
|----9-8-9---9-8-9----9-8-9---9-8-9-|
|----------8----------------8-------|
|-----------------------------------|
|-----------------------------------|
|-----------------------------------|
|
|  W
|-----------------------------------|
|--9--------------------------------|
|--8--------------------------------|
|--6--------------------------------|
|-----------------------------------|
|--8--------------------------------|


  D7/C
   S  S S  S S  S S  S  S  S S  S S  S S  S
|-10-------------------10--------------------|
|--------------------------------------------|
|----11-9-11-7-11-9-11----11-9-11-7-11-9-11--|
|--------------------------------------------|
|--------------------------------------------|
|--------------------------------------------|
|
|  W
|--------------------------------------------|
|--7-----------------------------------------|
|--7-----------------------------------------|
|--7-----------------------------------------|
|--------------------------------------------|
|--8-----------------------------------------|


  Gm/Bb                               C7/Bb
   S S S S S S S S  S S S S S S S S   S S S S S S S S S S S S S S S S
|-10---------------10---------------|-8---------------8----------------|
|----8-7-8---8-7-8----8-7-8---8-7-8-|----------------------------------|
|----------7----------------7-------|---9-7-9-5-9-7-9---9-7-9-5-9-7-9--|
|-----------------------------------|----------------------------------|
|-----------------------------------|----------------------------------|
|-----------------------------------|----------------------------------|
|
|  W                                  W
|-----------------------------------|----------------------------------|
|--8--------------------------------|-5--------------------------------|
|--7--------------------------------|-5--------------------------------|
|--5--------------------------------|-5--------------------------------|
|-----------------------------------|----------------------------------|
|--6--------------------------------|-6--------------------------------|


  Fm/Ab                             Bb7/Ab
  S S S S S S S S S S S S S S S S   S  S S  S S  S S  S S  S S  S S  S S  S
|-8---------------8---------------|-6-------------------6--------------------|
|---6-5-6---6-5-6---6-5-6---6-5-6-|------------------------------------------|
|---------5---------------5-------|---10-8-10-7-10-8-10---10-8-10-7-10-8-10--|
|---------------------------------|------------------------------------------|
|---------------------------------|------------------------------------------|
|---------------------------------|------------------------------------------|
|
| W                                 W
|---------------------------------|------------------------------------------|
|-6-------------------------------|-3----------------------------------------|
|-5-------------------------------|-3----------------------------------------|
|-3-------------------------------|-3----------------------------------------|
|---------------------------------|------------------------------------------|
|-4-------------------------------|-4----------------------------------------|


  Eb/G                              Ab/C
  S S S S S S S S S S S S S S S S   S S S S S S S S S S S S S S S S
|-6---------------6---------------|-4---------------4----------------|
|---8-6-8-4-8-6-8---8-6-8-4-8-6-8-|---8-6-8-4-8-6-8---8-6-8-4-8-6-8--|
|---------------------------------|----------------------------------|
|---------------------------------|----------------------------------|
|---------------------------------|----------------------------------|
|---------------------------------|----------------------------------|
|
| W                                 W
|---------------------------------|----------------------------------|
|-4-------------------------------|-9--------------------------------|
|-3-------------------------------|-8--------------------------------|
|-1-------------------------------|-6--------------------------------|
|---------------------------------|----------------------------------|
|-3-------------------------------|-8--------------------------------|


  Bb/D                               Eb
   S S S S S S S S S S S S S S S S    S S S S S S S S S S S S S S S S
|--4---------------4---------------|--3---------------3----------------|
|----------------------------------|----------4---------------4--------|
|----7-5-7-3-7-5-7---7-5-7-3-7-5-7-|----3-1-3---3-1-3---3-1-3---3-1-3--|
|----------------------------------|-----------------------------------|
|----------------------------------|-----------------------------------|
|----------------------------------|-----------------------------------|
|
|  W                                  W
|----------------------------------|-----------------------------------|
|-11-------------------------------|-11--------------------------------|
|-10-------------------------------|-12--------------------------------|
|--8-------------------------------|-13--------------------------------|
|----------------------------------|-13--------------------------------|
|-10-------------------------------|-11--------------------------------|


  F7/Eb                              D°7
   S S S S S S S S S S S S S S S S    S S S S S S S S S S S S S S S S
|--1---------------1---------------|-----------------------------------|
|----------------------------------|--6---------------6----------------|
|----5-3-5-2-5-3-5---5-3-5-2-5-3-5-|----7-5-7-4-7-5-7---7-5-7-4-7-5-7--|
|----------------------------------|-----------------------------------|
|----------------------------------|-----------------------------------|
|----------------------------------|-----------------------------------|
|
|  W                                  W
|----------------------------------|-----------------------------------|
|-10-------------------------------|--9--------------------------------|
|-10-------------------------------|-10--------------------------------|
|-10-------------------------------|--9--------------------------------|
|----------------------------------|-----------------------------------|
|-11-------------------------------|-10--------------------------------|


  Fm6/C                             Cm
  S S S S S S S S S S S S S S S S    S S S S S S S S S S S S S S S S
|---------------------------------|-----------------------------------|
|-6---------------6---------------|--4---------------4----------------|
|---7-5-7-4-7-5-7---7-5-7-4-7-5-7-|----5-4-5---5-4-5---5-4-5---5-4-5--|
|---------------------------------|----------5---------------5--------|
|---------------------------------|-----------------------------------|
|---------------------------------|-----------------------------------|
|
| W                                  W
|---------------------------------|-----------------------------------|
|-6-------------------------------|--8--------------------------------|
|-7-------------------------------|--8--------------------------------|
|-6-------------------------------|-10--------------------------------|
|---------------------------------|-10--------------------------------|
|-8-------------------------------|--8--------------------------------|


  F7                                 F#°7
   S S S S S S S S S S S S S S S S    S S S S S S S S S S S S S S S S
|----------------------------------|-----------------------------------|
|----4-3-4-6-4-3-4---4-3-4-6-4-3-4-|----------4---------------4--------|
|----------------------------------|----5-4-5---5-4-5---5-4-5---5-4-5--|
|--3---------------3---------------|--4---------------4----------------|
|----------------------------------|-----------------------------------|
|----------------------------------|-----------------------------------|
|
|  W                                  W
|----------------------------------|-----------------------------------|
|-10-------------------------------|-10--------------------------------|
|--8-------------------------------|--8--------------------------------|
|-10-------------------------------|-10--------------------------------|
|--8-------------------------------|--9--------------------------------|
|----------------------------------|-----------------------------------|


  Cm/G                              F#°7I
  S S S S S S S S S S S S S S S S   S S S S S S S S S S S S S S S S
|---------------------------------|-2---------------2----------------|
|-4---------------4---------------|----------------------------------|
|---5-4-5---5-4-5---5-4-5---5-4-5-|---5-4-5-2-5-4-5---5-4-5-2-5-4-5--|
|---------5---------------5-------|----------------------------------|
|---------------------------------|----------------------------------|
|---------------------------------|----------------------------------|
|
| W                                 W
|---------------------------------|----------------------------------|
|-4-------------------------------|-1--------------------------------|
|-5-------------------------------|-2--------------------------------|
|-5-------------------------------|-1--------------------------------|
|-3-------------------------------|----------------------------------|
|-3-------------------------------|-2--------------------------------|


  Cm/G                              G#/G
  S S S S S S S S S S S S S S S S   S S S S S S S S S S S S S S S S
|-3---------------3---------------|-4---------------4----------------||
|---------------------------------|----------------------------------||
|---5-4-5-7-5-4-5---5-4-5-7-5-4-5-|---5-4-5-7-5-4-5---5-4-5-7-5-4-5--||
|---------------------------------|----------------------------------||
|---------------------------------|----------------------------------||
|---------------------------------|----------------------------------||
|
| W                                 W
|---------------------------------|----------------------------------||
|-4-------------------------------|-4--------------------------------||
|-5-------------------------------|-5--------------------------------||
|-5-------------------------------|-6--------------------------------||
|-3-------------------------------|----------------------------------||
|-3-------------------------------|-3--------------------------------||


  G                                 Cm
  Gtr I
  S S S S S S S S S S S S S S S S   S S S S S S S S S S S S S S S S
|---------------------------------|---------------------3------------|
|---------------------3-----------|-----------------4-----4----------|
|---------1-------4-----4-1-------|---------5---------5-----5--------|
|-------3---3-2-3---3-------3-2-3-|-------5---5-4-5-----------6-5-6--|
|---2-5---------------------------|---3-6----------------------------|
|-3-------------------------------|-3--------------------------------|
|
| Q                 Q       H       Q       Q           H
|-3-------------------------------|----------------------------------|
|-3-------------------------------|-4--------------------------------|
|-0-------------------------------|-5--------------------------------|
|-0-------------------------------|-5--------------------------------|
|-2-------------------------------|-3--------------------------------|
|-3-------------------------------|----------------------------------|


  F#°7I                             G
  Gtr I
  S S S S S S S S S S S S S S S S   S  S S  S  S S  S S  S S S S  S S  S S
|---------------------5-2---------|---10-8-10-11-8----8----8-7-8-10-7----7--|
|---------4-------7-------4-------|----------------12---10------------10----|
|-------5---5-4-5---5-------5-4-5-|-0---------------------------------------|
|-----4---------------------------|-----------------------------------------|
|---------------------------------|-----------------------------------------|
|-3-5-----------------------------|-----------------------------------------|
|
| Q             Q         H         W
|---------------------------------|-----------------------------------------|
|-1-------------------------------|-----------------------------------------|
|-2-------------------------------|-4---------------------------------------|
|-1-------------------------------|-5---------------------------------------|
|---------------------------------|-5---------------------------------------|
|-2-------------------------------|-3---------------------------------------|


  G
   S  S S S S S S S S S S S S S S S
|-----7-5-7-8-5---5---5-3-5-7-3---3-|
|--8------------8---7-----------7---|
|-----------------------------------|
|-----------------------------------|
|-----------------------------------|
|-----------------------------------|
|
| +W
|-----------------------------------|
|-----------------------------------|
|-(4)-------------------------------|
|-(5)-------------------------------|
|-(5)-------------------------------|
|-(3)-------------------------------|


  Cm
  S  S  S  S  S  S  S  S  S  S  S  S  S  S  S  S
|---15-13-15-16-13----13----13-11-13-15-11----11--|
|-3----------------16----15----------------15-----|
|-------------------------------------------------|
|-------------------------------------------------|
|-------------------------------------------------|
|-------------------------------------------------|
|
| W
|-------------------------------------------------|
|-4-----------------------------------------------|
|-5-----------------------------------------------|
|-5-----------------------------------------------|
|-3-----------------------------------------------|
|-------------------------------------------------|


  Cm
   S   S  S  S  S  S  S  S  S  S S  S  S S  S S
|-----11-10-11-13-10----10----10-8-10-11-8----8-|
|-13-----------------13----12--------------12---|
|-----------------------------------------------|
|-----------------------------------------------|
|-----------------------------------------------|
|-----------------------------------------------|
|
| +W
|-----------------------------------------------|
|-(4)-------------------------------------------|
|-(5)-------------------------------------------|
|-(5)-------------------------------------------|
|-(3)-------------------------------------------|
|-----------------------------------------------|


  CmVIII(type 2)      Fm/CVIII
  S S  S S S  S  S  S S  S  S  S S  S S  S
|---8----8---13-11-13---11-10-11---10-8-10--|
|-8---12---9----------8----------6----------|
|-------------------------------------------|
|-------------------------------------------|
|-------------------------------------------|
|-------------------------------------------|
|
| H                 H
|-------------------------------------------|
|-4-----------------1-----------------------|
|-5-----------------1-----------------------|
|-5-----------------3-----------------------|
|-3-----------------3-----------------------|
|-------------------------------------------|


  CmVIII(type 2)  Fm/CVIII
  S S S S S S S S S S S S S S S S
|---8-7-8-4-------3-------1-------|
|-4---------6-4-6---4-3-4---3-1-3-|
|---------------------------------|
|---------------------------------|
|---------------------------------|
|---------------------------------|
|
| H               H
|---------------------------------|
|-4---------------1---------------|
|-5---------------1---------------|
|-5---------------3---------------|
|-3---------------3---------------|
|---------------------------------|


 Guitar Solo
  C
  W          +W           +W

|-0--------|-(0)--------|-(0)----*|
|-1--------|-(1)--------|-(1)----*|
|-0--------|-(0)--------|-(0)----*|
|-2--------|-(2)--------|-(2)----*|
|-3--------|-(3)--------|-(3)----*|
|-3--------|-(3)--------|-(3)----*|



Duration Legend
---------------
+ - note tied to previous; . - note dotted; .. - note double dotted
Uncapitalized letters represent notes that are staccato (1/2 duration)
Irregular groupings are notated above the duration line
Duration letters will always appear directly above the note/fret number it represents the
duration for.  Duration letters with no fret number below them represent rests.  Multi-
bar rests are notated in the form Wxn, where n is the number of bars to rest for.  Low
melody durations appear below the staff

Tablature Legend
----------------
 h   - hammer-on
 p   - pull-off
 b   - bend
 pb  - pre-bend
 r   - bend release (if no number after the r, then release immediately)
 /\  - slide into or out of (from/to "nowhere")
 s   - legato slide
 S   - shift slide
n(n) - tapped harmonic
 ~   - vibrato
 tr  - trill
 T   - tap
 TP  - trem. picking
 PM  - palm muting
\n/  - tremolo bar dip; n = amount to dip
 \n  - tremolo bar down
 n/  - tremolo bar up
/n\  - tremolo bar inverted dip
 =   - hold bend; also acts as connecting device for hammers/pulls
   - volume swell (louder/softer)

Misc Legend
-----------
 |  - bar
||o - repeat start
o|| - repeat end
 :  - bar (freetime)
 &  - Coda


***************************************************************************************
* Generated using Power Tab Editor by Brad Larsen - http://* *
***************************************************************************************
Texto Columnas
Alterar tom ½ tono ½ tono
sintonización acordes esconder tabs más »
128 exhibiciónes

Comentarios 0

Consigo tocarSin embargo, para tocar esta canción. ¡Sé el primero!
    Aún no puedo reproducir
    1. Sweet Child O' Mine - Guns N' Roses mantiene 3.067 exhibiciones
    2. Wonderwall - Oasis mantiene 2.242 exhibiciones
    3. All Of Me - John Legend mantiene 1.945 exhibiciones
    4. Nothing Else Matters - Metallica mantiene 1.870 exhibiciones
    5. I'm Yours - Jason Mraz mantiene 1.641 exhibiciones
    6. When I Was Your Man - Bruno Mars mantiene 1.586 exhibiciones
    7. Stairway To Heaven - Led Zeppelin mantiene 1.571 exhibiciones
    8. The Scientist - Coldplay mantiene 1.399 exhibiciones
    9. More Than Words - Extreme mantiene 1.398 exhibiciones
    10. Hey Jude - The Beatles mantiene 1.379 exhibiciones
    1. The Beatles- mantiene 21.800 exhibiciones
    2. Guns N' Roses- mantiene 7.579 exhibiciones
    3. Metallica- mantiene 6.993 exhibiciones
    4. Coldplay- mantiene 5.495 exhibiciones
    5. Red Hot Chili Peppers- mantiene 5.130 exhibiciones
    6. Nirvana- mantiene 4.983 exhibiciones
    7. Bruno Mars- mantiene 4.730 exhibiciones
    8. Oasis- mantiene 4.707 exhibiciones
    9. One Direction- mantiene 4.612 exhibiciones
    10. Ed Sheeran- mantiene 4.027 exhibiciones
    Exhibir acordes »

    Acordes y tabs

    Aprenda

    Studio Sol

    ©1996 - 2014 Cifra Club · el primero, mayor y más accedido del Brasil · 341 mil músicas · 6.3 millones de personas registradas

    publicidad
    cerrar