19 Dias Y 500 Noches

Joaquin Sabina

 Joaquin Sabina
Tono: E
		
Intro:

E|--12-12-12-10--8----10-10/12-10--8-8/10/8h7--|-------------------|
B|---------------------------------------------|---9---10--11--12--|
G|---------------------------------------------|-------------------|
D|---------------------------------------------|--9----11--12--13--|
A|---------------------------------------------|-------------------|
E|---------------------------------------------|-------------------|



E|--------------------------------|-----------------------|
B|------7-----7--9--10--9--7--5---|-----------------------|
G|----8---------------------------|-----------------------|
D|--7---------7--9--11--9--7--6---|--6-7-8-9--9-11-12-13--|
A|--------------------------------|-----------------------|
E|--------------------------------|-----------------------|


                E                         C#dim
Lo nuestro duró,   lo que duran dos peces de hielo
                  F#m                 B7
en un güisqui on the rocks, en vez de fingir,
                                              E
O, estrellarme una copa de celos, le dio por reír.

                    E7
De pronto me vi, como un perro de nadie,
                              A
Ladrando, a las puertas del cielo.

  Am                      E
Me dejó un neceser con agravios,
                 F#m   B7
la miel en los labios
                       E
y escarcha en el pelo.

E|--------------------------|
B|--9-10-11-12--12-14-15-16-|
G|--------------------------|
D|--------------------------|
A|--------------------------|
E|--------------------------|



E|--------------------------|
B|--------------------------|
G|--------------------------|
D|--6-7--8--9---9--11-12-13-|
A|--------------------------|
E|--------------------------|


             E                         C#dim
Tenían razón, mis amantes en eso de que, antes,
            F#m            B7
el malo era yo, con una excepción:
                                           E
Esta vez, yo quería quererla querer y ella no.

Así que se fue, me dejó el corazón
                      A
en los huesos y yo de rodillas.
  Am                           E
Desde el taxi, y, haciendo un exceso,
              F#m     B7
me tiró dos besos...
                E
uno por mejilla.

     A
Y regresé

a la maldición

del cajón sin su ropa,

a la perdición

de los bares de copas,

a las cenicientas

de saldo y esquina,

y, por esas ventas

del fino Laina,

pagando las cuentas

de gente sin alma

que pierde la calma
            E
con la cocaína,
      F#m
volviéndome loco,
     A
derrochando
               B7
la bolsa y la vida

la fuí, poco a poco,
                   E
dando por perdida.

Y eso que yo,
paro no agobiar con
flores a María,
para no asediarla
con mi antología
de sábanas frías
y alcobas vacías,
para no comprarla
con bisutería,
ni ser el fantoche
que va, en romería,
con la cofradía
del Santo Reproche,
tanto la quería,
que, tardé, en aprender
a olvidarla, diecinueve días
y quinientas noches.

Dijo hola y adiós,
y, el portazo, sonó
como un signo de interrogación,
sospecho que, así,
se vengaba, a través del olvido,
Cupido de mi.
No pido perdón,
¿para qué? si me va a perdonar
porque ya no le importa...
siempre tuvo la frente muy alta,
la lengua muy larga
y la falda muy corta.
Me abandonó,
como se abandonan
los zapatos viejos,
destrozó el cristal
de mis gafas de lejos,
sacó del espejo
su vivo retrato,
y, fui, tan torero,
por los callejones
del juego y el vino,
que, ayer, el portero,
me echó del casino
de Torrelodones.
Qué pena tan grande,
negaría el Santo Sacramento,
en el mismo momento
que usted me lo mande.
Y eso que yo,
paro no agobiar con
flores a María,
para no asediarla
con mi antología
de sábanas frías
y alcobas vacías,
para no comprarla
con bisutería,
ni ser el fantoche
que va, en romería,
con la cofradía
del Santo Reproche,
tanto la quería,
que, tardé, en aprender
a olvidarla, diecinueve días
y quinientas noches.
Y regresé...etc.

E|--------------------------|
B|--------------------------|
G|--------------------------|
D|--6-7--8--9---9--11-12-13-|
A|--------------------------|
E|--------------------------|


            B7           E
E|----------2-------------0-|
B|----------4-------------0-|
G|----------2-------------1-|
D|----------4-------------2-|
A|----------2-------------2-|
E|------------------------0-|

2.769 exhibiciónes

Comentarios 0

Composición: Alan Lancaster
Ese no és el compositor? Avisenos.
Contribución: dellamaggiora
Consigo tocarSin embargo, para tocar esta canción. ¡Sé el primero!
    Aún no puedo reproducir
    Exhibir acordes »
    publicidad
    cerrar