Guitar Pro 5

Jingles

Sin foto de Jingles
Tono: G
		
Essa é a musiquinha toca quando se abre o programa guitar pro 5.
                              

E|-----------0--2--0--------|----------------------|
B|--------3-----3-----3-----|--3-------3-------3---|
G|-----2--------2--------2--|-------0---------0----|
D|--0-----------------------|----------------------|
A|--------------------------|--3-------2----1------|
E|--------------------------|----------------------|

                

E|-------------------0------|--2----------------|
B|--------------2h3---------|--2----------------|
G|-----2-----4--------------|--2----------------|
D|--------2-----------------|--0----------------|
A|--0-----------------------|-------------------|
E|--------------------------|-------------------|
73 exhibiciónes

Comentarios 0

Exhibir acordes »
publicidad
cerrar