No Dejes Que...

Jaguares

Sin foto de Jaguares
Tono: G
		
(intro)

(gtr 1) acust    D  G   A   D
(gtr 2) elect

E |---------------------------------------------
B |-7--7^5-----8------------------7--5--7--5----
G |---------7-----7-7--6--4-------------------7-
D |--------------------------7--7---------------
A |---------------------------------------------
E |---------------------------------------------


(gtr 1) acust    G   A      D
(gtr 2) elect

E |------------5---7---9---9-7-5---14-12-10--(10)-
B |-7^5-----8-------------------------------------
G |------7----------------------------------------
D |-----------------------------------------------
A |-----------------------------------------------
E |-----------------------------------------------


D      G    A
Cuando veo a traves del vaso
D   G          A
veo a traves del tiempo
F#m          G             A
donde los sentidos se dislocan
F#m     G             A
donde los temores se evaporan

D       G            A
Yo aprovecho para desdoblarme
D       G          A
para salir del vaso
F#m     G     A
Con las paredes sudo tu rastro
F#m     G     A
Con la memoria sigo tu rostro

F     C       D
Y no se porque
F    C  D
no me importa saber porque

    G
No dejes que
       Am
nos coma el diablo amor
       Bm
que se trague tu calor
  C
que eructe en mi dolor

    G
No dejes que
       Am
nos coma el diablo amor
       Bm
que se trague tu calor
  C
que eructe en mi dolor

(mismos acordes)
Cuando veo a traves del humo
me voy volando y tu eres mi guia
entre los mundos nos haremos viejos
donde algun dia estaremos tranquilos

Y no se porque...
193 exhibiciónes

Comentarios 0

Composición: Sabe quien és el compositor? Envíenos. Contribución: Edwin
Consigo tocarSin embargo, para tocar esta canción. ¡Sé el primero!
    Aún no puedo reproducir
    Exhibir acordes »
    publicidad
    cerrar