I Got You

Jack Johnson

 Jack Johnson
Tono: B
		
Afinação: B F# B F# B D#

Intro:
                                                                              (Riff 1)

|---8--x--5--0--3--|---8--x--5--0--3--1--0--|---8--x--5--0--3--|---3--0-----|----------------
|------x-----------|------x-----------------|------x-----------|---------2--|--2/4---4-------
|------x-----------|------x-----------------|------x-----------|------------|----------------
|------x-----------|------x-----------------|------x-----------|------------|--2/4------4/2--
|------x-----------|------x-----------------|------x-----------|------------|----------------
|---5--x--5--0--0--|---5--x--5--0--0--0--0--|---5--x--5--0--0--|------------|----------------


Acordes:


       E      B       F#     G#m    C#m
|-----5------0-------0-------0------0
|-----0------0-------2-------2------0
|-----0------0-------0-------0------0
|-----0------3-------2-------0------0
|-----0------4-------0-------2------0
|-----5------x-------x-------x------2


E                                    B
Back when all my little goals seemed so important,
E                                    B
Every pot of gold filling full of distortion,
E                                    B               F#  (Riff 1)
Heaven was a place, still in space not in motion, but soon...

Refrão:

     E                    B
I got you, i got everything,
     E                    B                E
I got you, i don't need nothing,more than you

    B                  F#  (Riff 1)
I got everything, i got you.
E                                              B
We went walking through the hills trying to pretend that we both know,
E                             B
Maybe if we save up, we could build a little home,
    E                                         B
But then the hail storm came and yelled, "you need to let it go,
              F#          (Riff 1)
You've got no control", no

E                 B
I got you, i got everything,
E                  B                      E
I got you, i don't need nothing more than, you
       B               F#   (Riff 1)
I got everything, i got you.

      G#m                 B
This weight is too much alone,
     G#m           B
Some days i can't hold it at all
       G#m               B
If you take it all for me

       C#m                      E                   B
When tomorrow's too much, i'll carry it all, i got you
            C#m                      E                   B
Yeah when tomorrow's too much, i'll carry it all, i got you

E                 B
I got you, i got everything,
E                  B                      E
I got you, i don't need nothing more than, you
       B               F#    (Riff 1)
I got everything, i got you.
3.649 exhibiciónes

Comentarios 3

  • Igor Igor: Publicado en 09/03/2015 20:51

    ta toda errada, eu fiz a correcao e nao colocaram

  • lucas.assuncaogomes lucas.assuncaogomes: Publicado en 21/06/2013 15:47

    Vale Paolo por ter editado o resto,fiquei com preguiça haha

  • Paolo Paolo : Publicado en 14/06/2013 21:41

    Musica boa

Composición: Sabe quien és el compositor? Envíenos. Contribución: lucas.assuncaogomes Correcciónes: Igor , Paolo e mais 2 »
Exhibir acordes »
publicidad
cerrar