When The Wild Wind Blows

Iron Maiden

 Iron Maiden Compositor: Steve Harris
Tono: 
		
(tablatura transcrita por Lucas N. Pavão)

|------------------------------------------------------|--------------------------------------------------------------------|
|----------17--------15-------15--------15-------|------17-------15-----15h17-----------------------------------|
|----16--------16--------16--------16--------16-|-16------16------16---------------------------------------------|
|------------------------------------------------------|--------------------------------------------------------------------|
|------------------------------------------------------|--------------------------------------------------------------------|
|------------------------------------------------------|--------------------------------------------------------------------|



|------------------------------------------------------|--------------------------------------------------------------------|
|----------17--------15-------15--------15-------|------17-------15------------------------------------------------|
|----16--------16--------16--------16--------16-|-16------16------16-16h17---------------------------------|
|------------------------------------------------------|--------------------------------------------------------------------|
|------------------------------------------------------|--------------------------------------------------------------------|
|------------------------------------------------------|--------------------------------------------------------------------|



|------------------------------------------------------|--------------------------------------------------------------------|
|----------17--------15-------15--------15-------|------17-------15-----15h17-----------------------------------|
|----16--------16--------16--------16--------16-|-16------16------16---------------------------------------------|
|------------------------------------------------------|--------------------------------------------------------------------|
|------------------------------------------------------|--------------------------------------------------------------------|
|------------------------------------------------------|--------------------------------------------------------------------|



|------------------------------------------------------|--------------------------------------------------------------------|
|----------17--------15-------15--------15-------|------17----------------------15----------------------------------|
|----16--------16--------16--------16--------16-|-16------16----17----12----------------------------------------|
|------------------------------------------------------|--------------------------------------------------------------------|
|------------------------------------------------------|--------------------------------------------------------------------|
|------------------------------------------------------|--------------------------------------------------------------------|



|-------------------------------------------------------------------|-------------------------------------------------------|
|-------------------------------------------------------------------|-------------------------------------------------------|
|----9--11--12--11--9--9--7--7--------7---------------------|--9--11--12--11--9--9--7--7---------------------|
|-----------------------------------------9------9--9--5-7-----|----------------------------------------9---7~------|
|-------------------------------------------------------------------|-------------------------------------------------------|
|-------------------------------------------------------------------|-------------------------------------------------------|



|-------------------------------------------------------------------|------------------------------------------------------|
|-------------------------------------------------------------------|----------------------------------------16~---------|
|----9--11--12--11--9--9--7--7--------7---------------------|-12--11--12--------------14--18-----------------|
|-----------------------------------------9------9--9--5-7-----|-------------------------------------------------------|
|-------------------------------------------------------------------|-------------------------------------------------------|
|-------------------------------------------------------------------|-------------------------------------------------------|



|-------------------------------------------------------------------|-------------------------------------------------------|
|-------------------------------------------------------------------|-------------------------------------------------------|
|----9--11--12--11--9--9--7--7--------7---------------------|--9--11--12--11--9--9--7--7---------------------|
|-----------------------------------------9------9--9--5-7-----|----------------------------------------9---7~------|
|-------------------------------------------------------------------|-------------------------------------------------------|
|-------------------------------------------------------------------|-------------------------------------------------------|

Have you heard what they said on the news today, Have you heard what is coming to us all?

|-------------------------------------------------------------------|------------------------------------------------------|
|-------------------------------------------------------------------|----------------------------------------16~---------|
|----9--11--12--11--9--9--7--7--------7---------------------|-12--11--12--------------14--18-----------------|
|-----------------------------------------9------9--9--5-7-----|-------------------------------------------------------|
|-------------------------------------------------------------------|-------------------------------------------------------|
|-------------------------------------------------------------------|-------------------------------------------------------|

That the world as we know it will be coming to an end, Have you heard, have you heard?


|-------------------------------------------------------------------|------------------------------------------------------|
|-------------------------------------------------------------------|------------------------------------------------------|
|-----9--11--12--11--9----7--9--9----7--9--9-7----------|---9---11---12---11---9----7---9---9---7---9-|
|-9--------------------------9-----------9------------------------|-9---------------------------9-----------------------|
|-------------------------------------------------------------------|-------------------------------------------------------|
|-------------------------------------------------------------------|-------------------------------------------------------|

He sees them in the distance when the darkened clouds roll, He could feel tension in the atmosphere

|-------------------------------------------------------------------|------------------------------------------------------|
|-------------------------------------------------------------------|------------------------------------------------------|
|-----9--11--12--11--9----7--9--9----7--9--9-7----------|---9---11---12---11---9----7---9---9---7---9-|
|-9--------------------------9-----------9------------------------|-9---------------------------9-----------------------|
|-------------------------------------------------------------------|-------------------------------------------------------|
|-------------------------------------------------------------------|-------------------------------------------------------|

He would look in the mirror, see an old man now, Doesn’t matter they survived somehow


|---------------------------------------------------------------------|-----------------------------------------------------|
|---------------------------------------------------------------------|-----------------------------------------------------|
|-16-16-16-16-14-12-11---------------------------------------|----9--11--12--11--9----7--9--9--7--9-------|
|---------------------------------12-14-14-12-12-14-14-12-|-9--------------------------9------------------------|
|---------------------------------------------------------------------|-----------------------------------------------------|
|---------------------------------------------------------------------|-----------------------------------------------------|

They said there's nothing can be done about the situation, They said there's nothing you can do at all

|-----------------------------------------------------------------|---------------------------------------------------------|
|-----------------------------------------------------------------|-------------------------------------------14~---------|
|-----9--11--12--11--9----7--9--9----7--9--9-7--------|-12---11---12--------------14---16----------------|
|-9--------------------------9-----------9----------------------|---------------------------------------------------------|
|-----------------------------------------------------------------|---------------------------------------------------------|
|-----------------------------------------------------------------|---------------------------------------------------------|

To sit and wait around for something to occur, Did you know, did you know?


|-------------------------------------------------------------------|------------------------------------------------------|
|-------------------------------------------------------------------|------------------------------------------------------|
|-----9--11--12--11--9----7--9--9----7--9--9-7----------|---9---11---12---11---9----7---9---9---7---9-|
|-9--------------------------9-----------9------------------------|-9---------------------------9-----------------------|
|-------------------------------------------------------------------|-------------------------------------------------------|
|-------------------------------------------------------------------|-------------------------------------------------------|

As he stares across the garden looking at the meadows, Wonders if they’ll ever grow again

|-------------------------------------------------------------------|-------------------------------------------------------|
|-------------------------------------------------------------------|-------------------------------------------------------|
|-----9--11--12--11--9----7--9--9----7--9--9-7----------|-----9--11--12--11--9--7--7----------------------|
|-9--------------------------9-----------9------------------------|-9----------------------------------9--9--5--7------|
|-------------------------------------------------------------------|-------------------------------------------------------|
|-------------------------------------------------------------------|-------------------------------------------------------|

The desperation of the situation getting graver, Getting ready when the wild wind blows

(guitarra pesada)

|-------------------------------------------------------------------|-------------------------------------------------------|
|-------------------------------------------------------------------|-------------------------------------------------------|
|----9--11--12--11--9--9--7--7--------7---------------------|--9--11--12--11--9--9--7--7---------------------|
|-----------------------------------------9------9--9--5-7-----|----------------------------------------9---7~------|
|-------------------------------------------------------------------|-------------------------------------------------------|
|-------------------------------------------------------------------|-------------------------------------------------------|

Have you heard what they said on the news today, Have you heard what is coming to us all?

|-------------------------------------------------------------------|------------------------------------------------------|
|-------------------------------------------------------------------|----------------------------------------16~---------|
|----9--11--12--11--9--9--7--7--------7---------------------|-12--11--12--------------14--18-----------------|
|-----------------------------------------9------9--9--5-7-----|-------------------------------------------------------|
|-------------------------------------------------------------------|-------------------------------------------------------|
|-------------------------------------------------------------------|-------------------------------------------------------|

Do you know what is happening to just every one of us, Have you heard, have you heard?


|-------------------------------------------------------------------|-------------------------------------------------------|
|-------------------------------------------------------------------|-------------------------------------------------------|
|----9--11--12--11--9--9--7--7--------7---------------------|--9--11--12--11--9--9--7--7---------------------|
|-----------------------------------------9------9--9--5-7-----|----------------------------------------9---7~------|
|-------------------------------------------------------------------|-------------------------------------------------------|
|-------------------------------------------------------------------|-------------------------------------------------------|

There will be a catastrophe the like we’ve never seen, There will be something that will light the sky

|-------------------------------------------------------------------|------------------------------------------------------|
|-------------------------------------------------------------------|----------------------------------------16~---------|
|----9--11--12--11--9--9--7--7--------7---------------------|-12--11--12--------------14--18-----------------|
|-----------------------------------------9------9--9--5-7-----|-------------------------------------------------------|
|-------------------------------------------------------------------|-------------------------------------------------------|
|-------------------------------------------------------------------|-------------------------------------------------------|

That the world as we know it, it will never be the same, Did you know, did you know?


|-------------------------------------------------------------------|------------------------------------------------------|
|-------------------------------------------------------------------|------------------------------------------------------|
|-----9--11--12--11--9----7--9--9----7--9--9-7----------|---9---11---12---11---9----7---9---9---7---9-|
|-9--------------------------9-----------9------------------------|-9---------------------------9-----------------------|
|-------------------------------------------------------------------|-------------------------------------------------------|
|-------------------------------------------------------------------|-------------------------------------------------------|

He carries everything into the shelter now, but first, Getting ready when the moments comes

|-------------------------------------------------------------------|------------------------------------------------------|
|-------------------------------------------------------------------|------------------------------------------------------|
|-----9--11--12--11--9----7--9--9----7--9--9-7----------|---9---11---12---11---9----7---9---9---7---9-|
|-9--------------------------9-----------9------------------------|-9---------------------------9-----------------------|
|-------------------------------------------------------------------|-------------------------------------------------------|
|-------------------------------------------------------------------|-------------------------------------------------------|

He has enough supplies to last them for a year or two, Good to have because you never know


|---------------------------------------------------------------------|-----------------------------------------------------|
|---------------------------------------------------------------------|-----------------------------------------------------|
|-16-16-16-16-14-12-11---------------------------------------|----9--11--12--11--9----7--9--9--7--9-------|
|---------------------------------12-14-14-12-12-14-14-12-|-9--------------------------9------------------------|
|---------------------------------------------------------------------|-----------------------------------------------------|
|---------------------------------------------------------------------|-----------------------------------------------------|

They tell him nothing that we don’t already know about, They tell us nothing that is real at all

|-----------------------------------------------------------------|---------------------------------------------------------|
|-----------------------------------------------------------------|--------------------------------------------7~---------|
|-----9--11--12--11--9----7--9--9----7--9--9-7--------|--5----4----5---------------7----9----------------|
|-9--------------------------9-----------9----------------------|---------------------------------------------------------|
|-----------------------------------------------------------------|---------------------------------------------------------|
|-----------------------------------------------------------------|---------------------------------------------------------|

They only fill us with the stuff that they want, Did you know, did you know?


|-------------------------------------------------------------------|------------------------------------------------------|
|-------------------------------------------------------------------|------------------------------------------------------|
|-----9--11--12--11--9----7--9--9----7--9--9-7----------|---9---11---12---11---9----7---9---9---7---9-|
|-9--------------------------9-----------9------------------------|-9---------------------------9-----------------------|
|-------------------------------------------------------------------|-------------------------------------------------------|
|-------------------------------------------------------------------|-------------------------------------------------------|

He's nearly finished with the preparations for the day, He's getting tired; that'll do for now

|-------------------------------------------------------------------|-------------------------------------------------------|
|-------------------------------------------------------------------|-------------------------------------------------------|
|-----9--11--12--11--9----7--9--9----7--9--9-7----------|-----9--11--12--11--9--7--7----------------------|
|-9--------------------------9-----------9------------------------|-9----------------------------------9--9--5--7------|
|-------------------------------------------------------------------|-------------------------------------------------------|
|-------------------------------------------------------------------|-------------------------------------------------------|

They are preparing for the very worst to come to them, Getting ready when the wild wind blows….
125 exhibiciónes

Comentarios 0

Composición: Alexandre Peixe / Steve Harris
Ese no és el compositor? Avisenos.
Contribución: L.N.P.
Consigo tocarSin embargo, para tocar esta canción. ¡Sé el primero!
    Aún no puedo reproducir
    Exhibir acordes »
    publicidad
    cerrar