Sign Of The Cross

Iron Maiden

 Iron Maiden
Tono: G
		
    INTRO:


    E|-----------------------------------------------------------------------------------------
    B|-----------------------------------------------------------------------------------------
    G|-----------------------------------------------------------------------------------------
    D|---7-9-10-9--7-9-10-9----7-9-10-9-10--12--10-9----7-9-10-9--7-9-10-9---------------------
    A|-----------------------------------------------------------------------7-9-10-9-10-9-10--
    E|-0---------------------0------------------------0--------------------0-------------------



    E|-----------------------------------------------------------------------------------------
    B|-----------------------------------------------------------------------------------------
    G|-----------------------------------------------------------------------------------------
    D|---7-9-10-9--7-9-10-9----7-9-10-9-10--12--10-9----7-9-10-9--7-9-10-9---------------------
    A|-----------------------------------------------------------------------7-9-10-9-10-9-7---
    E|-0---------------------0------------------------0--------------------0-------------------



      00:33 - 01:25 = INTRO 2 - HARMONIC CHORDS



                                 C9          D9         X3
    E|-----12------12------12----3-----------5---------
    B|-----12------12------12----3-----------5---------
    G|-----12------12------12----5-----------7---------
    D|-----12------12------12----5-----------7---------
    A|---------------------------3-----------5---------
    E|---------------------------3-----------5---------



      01:26 - 02:22 = VERSE 1



    E|-----------------------------------------------------------------------------
    B|-----------------------------------------------------------------------------
    G|-----------------------------------7-----------------------------------7-----
    D|-------9----9----9----9----9----7--7---------9----9----9----9----9--7--7-----
    A|--7--777--777--777--777--777----5-------7--777--777--777--777--777--5--------
    E|--0-------------------------------------0------------------------------------




    E|--------------------------------------------------------------------------------------
    B|--------------------------------------------------------------------------------------
    G|--------------------------------------------------------------------------------------
    D|-------4--------5--------7--------9---------4--------5--------7--------9----9------7--
    A|--2--222---3--333---5--555---7--777----2--222---3--333---5--555---7--777----7------5--
    E|--0--------0--------0--------0---------0--------0--------0--------0------------00-----




    E|-----------------------------------------------------------------------------
    B|-----------------------------------------------------------------------------
    G|-----------------------------------7-----------------------------------7-----
    D|-------9----9----9----9----9----7--7---------9----9----9----9----9--7--7-----
    A|--7--777--777--777--777--777----5-------7--777--777--777--777--777--5--------
    E|--0-------------------------------------0------------------------------------




    E|--------------------------------------------------------------------------------------
    B|--------------------------------------------------------------------------------------
    G|--------------------------------------------------------------------------------------
    D|-------4--------5--------7--------9---------4--------5--------7--------9----9------7--
    A|--2--222---3--333---5--555---7--777----2--222---3--333---5--555---7--777----7------5--
    E|--0--------0--------0--------0---------0--------0--------0--------0------------00-----




    E|--------------------------------------------------------------------------------
    B|-----------------------------------------5--5-7-8-7-----0---5--5-7-8-7----------
    G|-----------------------------------------------------7^-----------------7^------
    D|--9----9----9----9----9----9----9----9------------------------------------------
    A|--7--777--777--777--777--777--777--777------------------------------------------
    E|--------------------------------------------------------------------------------




    E|--------------------------------------------------------------------------------
    B|--------------------------------------------5--5-7-8-7-----0---5--5-7-8-7-------
    G|--------------------------------------------------------7^-----------------7^---
    D|--5----5----5----5----5----5----5----5--7---------------------------------------
    A|--3--333--333--333--333--333--333--333--5---------------------------------------
    E|--------------------------------------------------------------------------------




      02:23 - 02:43 = CHORUS



    E|---------------------------------------------------------------------
    B|---------------------------------------------------------------------
    G|---------------------------------------------------------------------
    D|--5-------7-------5-------------9----9----9----9----9----9----9---9--
    A|--3---5---5---7---3---5----7--777--777--777--777--777--777--777-777--
    E|------3-------5-------3----0-----------------------------------------


     (VERSE 1 AGAIN) - 02:43
     (CHORUS AGAIN) - 03:00


      3:20 - 3:40
                                                                        X2

    E|----------------------------------------------------------------------------
    B|----------------------------------------------------------------------------
    G|----------------------------------------------------------------------------
    D|----9-9-9-7-9-9-9-----9-9-9-7-9-9-9-----9-9-9-7-9-9-9-10-10-9-9-7-7-9-9-----
    A|--7-----------------7-----------------7-------------------------------------
    E|----------------------------------------------------------------------------




    E|----------------------------------------------------------------------------
    B|----------------------------------------------------------------------------
    G|----------------------------------------------------------------------------
    D|----7-7-7-5-7-7-7-----7-7-7-5-7--7-----7-7-7-5-7-7-7-9-9-7-7-5-5-7-7--------
    A|--5-----------------5----------------5--------------------------------------
    E|----------------------------------------------------------------------------



    E|----------------------------------------------------------------------------
    B|----------------------------------------------------------------------------
    G|----------------------------------------------------------------------------
    D|----9-9-9-7-9-9-9-----9-9-9-7-9-9-9-----9-9-9-7-9-9-9-10-10-9-9-7-7-9-9-----
    A|--7-----------------7-----------------7-------------------------------------
    E|----------------------------------------------------------------------------




      03:41



    E|---------------------------| 6x
    B|---------------------------|
    G|---------------------------|
    D|--2----5-5-5---4-4-4--2-2--|
    A|--0----3-3-3---2-2-2--0-0--|
    E|---------------------------|



    E|---0-------|
    B|----0------|
    G|-----0-----|
    D|------0----|
    A|-------0---|
    E|--------0--|




      04:12 = BACKGROUND CHANTING


                             2x

    E|---------------------------|-----------------------------|----------------------------
    B|---------------------------|-----------------------------|----------------------------
    G|---------------------------|-----------------------------|----------------------------
    D|---9---9-8-----9---9---8-7-|----7---7-6-----7---7---6-5--|---9---9-8-----9---9---8-7--
    A|-7---7-------7---7---7-----|--5---5-------5---5---5------|-7---7-------7---7---7------
    E|---------------------------|-----------------------------|----------------------------




      04:44




    E|--------------------------------------------------------|--------------------------------
    B|--------------------------------------------------------|--------------------------------
    G|--------------------------------------------------------|--------------------------------
    D|----9-9---8-------------9-9---8---7---------------------|---9-9---8----------------------
    A|--7-----7----7---7----7-----7---7------7---7---7---7----|-7-----7----7---7---7---7-------
    E|-----------000-000-00----------------000-000-000-000-00-|----------000-000-000-000-00----




    E|-----------------------------------|------------------------------------------------------|
    B|-----------------------------------|------------------------------------------------------|
    G|-----------------------------------|------------------------------------------------------|
    D|----9-9---8---7--------------------|---7-7---6--------------7-7---6---5-------------------|
    A|--7-----7---7-----7---7---7---7----|-5-----5-----5---5----5-----5---5----5---5---5---5----|
    E|----------------000-000-000-000-00-|-----------000-000-00--------------000-000-000-000-00-|



    E|---------------------------------------------------------------|2x
    B|---------------------------------------------------------------|
    G|---------------------------------------------------------------|
    D|----9-9---8---------------------9-9---8---7--------------------|
    A|--7-----7----7---7---7---7----7-----7---7-----7---7---7---7----|
    E|-----------000-000-000-000-00---------------000-000-000-000-00-|



      05:46 = RIFF 5



    E|------------------------------------------------------| |---------------------------|2x
    B|------------------------------------------------------| |---------------------------|
    G|------------------------------------------------------| |---------------------------|
    D|---9-----10-----7-----9-----9-----10------7------9----| |--7-----8-----5-----7------|
    A|--7-7-7-7--7-7-7-7-7-7-7-7-7-7-7-7--7-7-7---7-7-7-7-7-| |-5-5-5-5-5-5-5-5-5-5-5-8-7-|
    E|------------------------------------------------------| |---------------------------|




      06:05 = RIFF 5 WITH LEAD 2



    E|---------------10-----------------------------------10-----------------
    B|--12--10-12-13----13-10----10-12-------12--10-12-13----13-10----10-12--
    G|------------------------12-----------------------------------12--------
    D|-----------------------------------------------------------------------
    A|-----------------------------------------------------------------------
    E|-----------------------------------------------------------------------



    E|--------------8-------------------------------8---------------
    B|--10--8-10-11---11-8----8-10------10--8-10-11---11-8----8-10--
    G|---------------------10------------------------------10-------
    D|--------------------------------------------------------------
    A|--------------------------------------------------------------
    E|--------------------------------------------------------------




      06:44 = RIFF 6 - HEAVY AND FAST



      GUITAR: 1
                                                                           X2

    E|-----------------------------------------------------------------------
    B|-----------------------------------------------------------------------
    G|-----------------------------------------------------------------------
    D|----------------------------------------------------------7------------
    A|--10-10-10-9-7---10-10-10-9-7---10-10-10-9-7---7-7-7-7-10---10-9-7-10--
    E|-----------------------------------------------------------------------



      GUITAR: 2 AND 3
                                                                           X2

    E|-----------------------------------------------------------------------
    B|-----------------------------------------------------------------------
    G|-----------------------------------------------------------------------
    D|-----------------------------------------------------------------------
    A|------------------------------------------------0----------------------
    E|--3-3-3-2-0---3-3-3-2-0---3-3-3-2-0---0-0-0-0-3---3-2-0-3--------------




      06:36

                                                                                      X2

    E|----7-7-5-------7-7-5---------------------7-7-5-------7-7-5-----------------------
    B|--5-------8-7-5-------8-7-5----8---7---5--------8-7-5-------8-7-5----8---7---5----
    G|-----------------------------7---7---7-----------------------------7---7---7------
    D|----------------------------------------------------------------------------------
    A|----------------------------------------------------------------------------------
    E|----------------------------------------------------------------------------------




      06:56 = SOLO 1 (JANICK GERS)




      07:34

                                                                                      X2

    E|----7-7-5-------7-7-5---------------------7-7-5-------7-7-5-----------------------
    B|--5-------8-7-5-------8-7-5----8---7---5--------8-7-5-------8-7-5----8---7---5----
    G|-----------------------------7---7---7-----------------------------7---7---7------
    D|----------------------------------------------------------------------------------
    A|----------------------------------------------------------------------------------
    E|----------------------------------------------------------------------------------




      07:54

                                                                                           X6

    E|--------------------------------------------------------------------------10-9---------
    B|-----10-12-12--12-12--12-13-12-10-12---------10-12-12--12-12--12-13-12-10------12-10---
    G|--9----------------------------------------9-------------------------------------------
    D|---------------------------------------------------------------------------------------
    A|---------------------------------------------------------------------------------------
    E|---------------------------------------------------------------------------------------


                                                                                            X6

    E|-----------------------------------------10-9-------------------------------------------
    B|-----10-12-12--12-12--12-13-12-10-12----------12-10-12-10-------------------------------
    G|--9-------------------------------------------------------12-11-12-11-9----12-11-9------
    D|------------------------------------------------------------------------12---------12---
    A|----------------------------------------------------------------------------------------
    E|----------------------------------------------------------------------------------------




      08:49 = SLOW AND CRUNCHY



    E|------------------------------------------------------------------------------------------
    B|----------------------6-5-------------------8-7--------3-2--------6-5---------------------
    G|--------------------5----5-------5-4------7----7-----2----2-----5----5-------5-4----------
    D|--2--5-----7-------5-5---------5----5----7-7--------2-2--------5-5---------5----5---------
    A|--2--3--5--5--7---3-----------5-5-------5----------0----------3-----------5-5-------7-----
    E|--0-----3-----5--------------3-------------------------------------------3------------0---




      09:25 = INTRO 1 WITH ENDING 2




    E|-----------------------------------------------------------------------------------------
    B|-----------------------------------------------------------------------------------------
    G|-------------------------------------7---------------------------------------------------
    D|---7-9-10-9--7-9-10-9---7-9-10--9-10---10-9----7-9-10-9--7-9-10-9------------------------
    A|---------------------------------------------------------------------7-9-10-9-10-9-7-----
    E|--------------------------------------------------------------------------------------0--
Texto Columnas
Alterar tom ½ tono ½ tono
sintonización acordes esconder tabs más »

Comentarios 0

Composición: Alexandre Peixe / Steve Harris
Ese no és el compositor? Avisenos.
Contribución: Giovanne Correcciónes: Priscilla , Marcos e mais 2 »
  1. Sweet Child O' Mine - Guns N' Roses mantiene 3.067 exhibiciones
  2. Wonderwall - Oasis mantiene 2.242 exhibiciones
  3. All Of Me - John Legend mantiene 1.945 exhibiciones
  4. Nothing Else Matters - Metallica mantiene 1.870 exhibiciones
  5. I'm Yours - Jason Mraz mantiene 1.641 exhibiciones
  6. When I Was Your Man - Bruno Mars mantiene 1.586 exhibiciones
  7. Stairway To Heaven - Led Zeppelin mantiene 1.571 exhibiciones
  8. The Scientist - Coldplay mantiene 1.399 exhibiciones
  9. More Than Words - Extreme mantiene 1.398 exhibiciones
  10. Hey Jude - The Beatles mantiene 1.379 exhibiciones
  1. The Beatles- mantiene 21.800 exhibiciones
  2. Guns N' Roses- mantiene 7.579 exhibiciones
  3. Metallica- mantiene 6.993 exhibiciones
  4. Coldplay- mantiene 5.495 exhibiciones
  5. Red Hot Chili Peppers- mantiene 5.130 exhibiciones
  6. Nirvana- mantiene 4.983 exhibiciones
  7. Bruno Mars- mantiene 4.730 exhibiciones
  8. Oasis- mantiene 4.707 exhibiciones
  9. One Direction- mantiene 4.612 exhibiciones
  10. Ed Sheeran- mantiene 4.027 exhibiciones
Exhibir acordes »

Acordes y tabs

Aprenda

Studio Sol

©1996 - 2014 Cifra Club · el primero, mayor y más accedido del Brasil · 341 mil músicas · 6.3 millones de personas registradas

publicidad
cerrar